ISO-10303-21;
HEADER;
/* Generated by software containing ST-Developer
 * from STEP Tools, Inc. (www.steptools.com) 
 */
/* OPTION: strings as raw bytes, not using required /X/ escapes */

FILE_DESCRIPTION(
/* description */ ('Unknown'),
/* implementation_level */ '2;1');

FILE_NAME(
/* name */ 'lock_nut',
/* time_stamp */ '2023-03-05T11:19:41+01:00',
/* author */ ('Unknown'),
/* organization */ ('Unknown'),
/* preprocessor_version */ 'ST-DEVELOPER v18.1',
/* originating_system */ 'Solid Edge',
/* authorisation */ 'Unknown');

FILE_SCHEMA (('AUTOMOTIVE_DESIGN {1 0 10303 214 3 1 1}'));
ENDSEC;

DATA;
#10=PROPERTY_DEFINITION_REPRESENTATION(#14,#12);
#11=PROPERTY_DEFINITION_REPRESENTATION(#15,#13);
#12=REPRESENTATION('',(#16),#357);
#13=REPRESENTATION('',(#17),#357);
#14=PROPERTY_DEFINITION('pmi validation property','',#362);
#15=PROPERTY_DEFINITION('pmi validation property','',#362);
#16=VALUE_REPRESENTATION_ITEM('number of annotations',COUNT_MEASURE(0.));
#17=VALUE_REPRESENTATION_ITEM('number of views',COUNT_MEASURE(0.));
#18=SHAPE_REPRESENTATION_RELATIONSHIP('','',#212,#19);
#19=ADVANCED_BREP_SHAPE_REPRESENTATION('',(#210),#357);
#20=CONICAL_SURFACE('',#230,1.62789697251677,1.30899693899575);
#21=CYLINDRICAL_SURFACE('',#225,6.);
#22=CYLINDRICAL_SURFACE('',#229,3.5);
#23=CIRCLE('',#221,3.5);
#24=CIRCLE('',#222,3.62505888387776);
#25=CIRCLE('',#224,6.);
#26=CIRCLE('',#226,6.);
#27=CIRCLE('',#228,3.5);
#28=LINE('',#288,#40);
#29=LINE('',#290,#41);
#30=LINE('',#292,#42);
#31=LINE('',#300,#43);
#32=LINE('',#302,#44);
#33=LINE('',#310,#45);
#34=LINE('',#312,#46);
#35=LINE('',#320,#47);
#36=LINE('',#322,#48);
#37=LINE('',#330,#49);
#38=LINE('',#332,#50);
#39=LINE('',#339,#51);
#40=VECTOR('',#235,1000.);
#41=VECTOR('',#236,1000.);
#42=VECTOR('',#237,1000.);
#43=VECTOR('',#240,1000.);
#44=VECTOR('',#241,1000.);
#45=VECTOR('',#244,1000.);
#46=VECTOR('',#245,1000.);
#47=VECTOR('',#248,1000.);
#48=VECTOR('',#249,1000.);
#49=VECTOR('',#252,1000.);
#50=VECTOR('',#253,1000.);
#51=VECTOR('',#256,1000.);
#52=ORIENTED_EDGE('',*,*,#98,.F.);
#53=ORIENTED_EDGE('',*,*,#99,.T.);
#54=ORIENTED_EDGE('',*,*,#100,.T.);
#55=ORIENTED_EDGE('',*,*,#101,.F.);
#56=ORIENTED_EDGE('',*,*,#102,.F.);
#57=ORIENTED_EDGE('',*,*,#101,.T.);
#58=ORIENTED_EDGE('',*,*,#103,.T.);
#59=ORIENTED_EDGE('',*,*,#104,.F.);
#60=ORIENTED_EDGE('',*,*,#105,.F.);
#61=ORIENTED_EDGE('',*,*,#104,.T.);
#62=ORIENTED_EDGE('',*,*,#106,.T.);
#63=ORIENTED_EDGE('',*,*,#107,.F.);
#64=ORIENTED_EDGE('',*,*,#108,.F.);
#65=ORIENTED_EDGE('',*,*,#107,.T.);
#66=ORIENTED_EDGE('',*,*,#109,.T.);
#67=ORIENTED_EDGE('',*,*,#110,.F.);
#68=ORIENTED_EDGE('',*,*,#111,.F.);
#69=ORIENTED_EDGE('',*,*,#110,.T.);
#70=ORIENTED_EDGE('',*,*,#112,.T.);
#71=ORIENTED_EDGE('',*,*,#113,.F.);
#72=ORIENTED_EDGE('',*,*,#114,.F.);
#73=ORIENTED_EDGE('',*,*,#113,.T.);
#74=ORIENTED_EDGE('',*,*,#115,.T.);
#75=ORIENTED_EDGE('',*,*,#99,.F.);
#76=ORIENTED_EDGE('',*,*,#116,.T.);
#77=ORIENTED_EDGE('',*,*,#117,.T.);
#78=ORIENTED_EDGE('',*,*,#118,.F.);
#79=ORIENTED_EDGE('',*,*,#100,.F.);
#80=ORIENTED_EDGE('',*,*,#115,.F.);
#81=ORIENTED_EDGE('',*,*,#112,.F.);
#82=ORIENTED_EDGE('',*,*,#109,.F.);
#83=ORIENTED_EDGE('',*,*,#106,.F.);
#84=ORIENTED_EDGE('',*,*,#103,.F.);
#85=ORIENTED_EDGE('',*,*,#119,.F.);
#86=ORIENTED_EDGE('',*,*,#118,.T.);
#87=ORIENTED_EDGE('',*,*,#120,.T.);
#88=ORIENTED_EDGE('',*,*,#119,.T.);
#89=ORIENTED_EDGE('',*,*,#116,.F.);
#90=ORIENTED_EDGE('',*,*,#120,.F.);
#91=ORIENTED_EDGE('',*,*,#111,.T.);
#92=ORIENTED_EDGE('',*,*,#114,.T.);
#93=ORIENTED_EDGE('',*,*,#98,.T.);
#94=ORIENTED_EDGE('',*,*,#102,.T.);
#95=ORIENTED_EDGE('',*,*,#105,.T.);
#96=ORIENTED_EDGE('',*,*,#108,.T.);
#97=ORIENTED_EDGE('',*,*,#117,.F.);
#98=EDGE_CURVE('',#121,#122,#138,.T.);
#99=EDGE_CURVE('',#121,#123,#28,.T.);
#100=EDGE_CURVE('',#123,#124,#29,.T.);
#101=EDGE_CURVE('',#122,#124,#30,.T.);
#102=EDGE_CURVE('',#122,#125,#139,.T.);
#103=EDGE_CURVE('',#124,#126,#31,.T.);
#104=EDGE_CURVE('',#125,#126,#32,.T.);
#105=EDGE_CURVE('',#125,#127,#140,.T.);
#106=EDGE_CURVE('',#126,#128,#33,.T.);
#107=EDGE_CURVE('',#127,#128,#34,.T.);
#108=EDGE_CURVE('',#127,#129,#141,.T.);
#109=EDGE_CURVE('',#128,#130,#35,.T.);
#110=EDGE_CURVE('',#129,#130,#36,.T.);
#111=EDGE_CURVE('',#129,#131,#142,.T.);
#112=EDGE_CURVE('',#130,#132,#37,.T.);
#113=EDGE_CURVE('',#131,#132,#38,.T.);
#114=EDGE_CURVE('',#131,#121,#143,.T.);
#115=EDGE_CURVE('',#132,#123,#39,.T.);
#116=EDGE_CURVE('',#133,#133,#23,.T.);
#117=EDGE_CURVE('',#134,#134,#24,.T.);
#118=EDGE_CURVE('',#135,#135,#25,.T.);
#119=EDGE_CURVE('',#136,#136,#26,.T.);
#120=EDGE_CURVE('',#137,#137,#27,.F.);
#121=VERTEX_POINT('',#286);
#122=VERTEX_POINT('',#287);
#123=VERTEX_POINT('',#289);
#124=VERTEX_POINT('',#291);
#125=VERTEX_POINT('',#299);
#126=VERTEX_POINT('',#301);
#127=VERTEX_POINT('',#309);
#128=VERTEX_POINT('',#311);
#129=VERTEX_POINT('',#319);
#130=VERTEX_POINT('',#321);
#131=VERTEX_POINT('',#329);
#132=VERTEX_POINT('',#331);
#133=VERTEX_POINT('',#342);
#134=VERTEX_POINT('',#344);
#135=VERTEX_POINT('',#347);
#136=VERTEX_POINT('',#350);
#137=VERTEX_POINT('',#353);
#138=B_SPLINE_CURVE_WITH_KNOTS('',3,(#281,#282,#283,#284,#285),
 .UNSPECIFIED.,.F.,.F.,(4,1,4),(2.00564706087249E-7,0.00288695191065422,
0.00577370325660234),.UNSPECIFIED.);
#139=B_SPLINE_CURVE_WITH_KNOTS('',3,(#294,#295,#296,#297,#298),
 .UNSPECIFIED.,.F.,.F.,(4,1,4),(2.21955591629082E-7,0.00288697330153976,
0.00577372464748789),.UNSPECIFIED.);
#140=B_SPLINE_CURVE_WITH_KNOTS('',3,(#304,#305,#306,#307,#308),
 .UNSPECIFIED.,.F.,.F.,(4,1,4),(2.42103513115509E-7,0.00288699344946123,
0.00577374479540935),.UNSPECIFIED.);
#141=B_SPLINE_CURVE_WITH_KNOTS('',3,(#314,#315,#316,#317,#318),
 .UNSPECIFIED.,.F.,.F.,(4,1,4),(2.00564706087249E-7,0.00288695191065422,
0.00577370325660235),.UNSPECIFIED.);
#142=B_SPLINE_CURVE_WITH_KNOTS('',3,(#324,#325,#326,#327,#328),
 .UNSPECIFIED.,.F.,.F.,(4,1,4),(2.21955591629082E-7,0.00288697330153976,
0.00577372464748788),.UNSPECIFIED.);
#143=B_SPLINE_CURVE_WITH_KNOTS('',3,(#334,#335,#336,#337,#338),
 .UNSPECIFIED.,.F.,.F.,(4,1,4),(2.42103513115509E-7,0.00288699344946124,
0.00577374479540937),.UNSPECIFIED.);
#144=EDGE_LOOP('',(#52,#53,#54,#55));
#145=EDGE_LOOP('',(#56,#57,#58,#59));
#146=EDGE_LOOP('',(#60,#61,#62,#63));
#147=EDGE_LOOP('',(#64,#65,#66,#67));
#148=EDGE_LOOP('',(#68,#69,#70,#71));
#149=EDGE_LOOP('',(#72,#73,#74,#75));
#150=EDGE_LOOP('',(#76));
#151=EDGE_LOOP('',(#77));
#152=EDGE_LOOP('',(#78));
#153=EDGE_LOOP('',(#79,#80,#81,#82,#83,#84));
#154=EDGE_LOOP('',(#85));
#155=EDGE_LOOP('',(#86));
#156=EDGE_LOOP('',(#87));
#157=EDGE_LOOP('',(#88));
#158=EDGE_LOOP('',(#89));
#159=EDGE_LOOP('',(#90));
#160=EDGE_LOOP('',(#91,#92,#93,#94,#95,#96));
#161=EDGE_LOOP('',(#97));
#162=FACE_BOUND('',#144,.T.);
#163=FACE_BOUND('',#145,.T.);
#164=FACE_BOUND('',#146,.T.);
#165=FACE_BOUND('',#147,.T.);
#166=FACE_BOUND('',#148,.T.);
#167=FACE_BOUND('',#149,.T.);
#168=FACE_BOUND('',#150,.T.);
#169=FACE_BOUND('',#151,.T.);
#170=FACE_BOUND('',#152,.T.);
#171=FACE_BOUND('',#153,.T.);
#172=FACE_BOUND('',#154,.T.);
#173=FACE_BOUND('',#155,.T.);
#174=FACE_BOUND('',#156,.T.);
#175=FACE_BOUND('',#157,.T.);
#176=FACE_BOUND('',#158,.T.);
#177=FACE_BOUND('',#159,.T.);
#178=FACE_BOUND('',#160,.T.);
#179=FACE_BOUND('',#161,.T.);
#180=PLANE('',#214);
#181=PLANE('',#215);
#182=PLANE('',#216);
#183=PLANE('',#217);
#184=PLANE('',#218);
#185=PLANE('',#219);
#186=PLANE('',#220);
#187=PLANE('',#223);
#188=PLANE('',#227);
#189=ADVANCED_FACE('',(#162),#180,.F.);
#190=ADVANCED_FACE('',(#163),#181,.F.);
#191=ADVANCED_FACE('',(#164),#182,.F.);
#192=ADVANCED_FACE('',(#165),#183,.F.);
#193=ADVANCED_FACE('',(#166),#184,.F.);
#194=ADVANCED_FACE('',(#167),#185,.F.);
#195=ADVANCED_FACE('',(#168,#169),#186,.T.);
#196=ADVANCED_FACE('',(#170,#171),#187,.F.);
#197=ADVANCED_FACE('',(#172,#173),#21,.T.);
#198=ADVANCED_FACE('',(#174,#175),#188,.T.);
#199=ADVANCED_FACE('',(#176,#177),#22,.F.);
#200=ADVANCED_FACE('',(#178,#179),#20,.T.);
#201=CLOSED_SHELL('',(#189,#190,#191,#192,#193,#194,#195,#196,#197,#198,
#199,#200));
#202=STYLED_ITEM('',(#203),#210);
#203=PRESENTATION_STYLE_ASSIGNMENT((#204));
#204=SURFACE_STYLE_USAGE(.BOTH.,#205);
#205=SURFACE_SIDE_STYLE('',(#206));
#206=SURFACE_STYLE_FILL_AREA(#207);
#207=FILL_AREA_STYLE('',(#208));
#208=FILL_AREA_STYLE_COLOUR('',#209);
#209=COLOUR_RGB('',0.749019622802734,0.665650486946106,0.449411779642105);
#210=MANIFOLD_SOLID_BREP('',#201);
#211=SHAPE_DEFINITION_REPRESENTATION(#362,#212);
#212=SHAPE_REPRESENTATION('RearWheel_nut',(#213),#357);
#213=AXIS2_PLACEMENT_3D('',#279,#231,#232);
#214=AXIS2_PLACEMENT_3D('',#280,#233,#234);
#215=AXIS2_PLACEMENT_3D('',#293,#238,#239);
#216=AXIS2_PLACEMENT_3D('',#303,#242,#243);
#217=AXIS2_PLACEMENT_3D('',#313,#246,#247);
#218=AXIS2_PLACEMENT_3D('',#323,#250,#251);
#219=AXIS2_PLACEMENT_3D('',#333,#254,#255);
#220=AXIS2_PLACEMENT_3D('',#340,#257,#258);
#221=AXIS2_PLACEMENT_3D('',#341,#259,#260);
#222=AXIS2_PLACEMENT_3D('',#343,#261,#262);
#223=AXIS2_PLACEMENT_3D('',#345,#263,#264);
#224=AXIS2_PLACEMENT_3D('',#346,#265,#266);
#225=AXIS2_PLACEMENT_3D('',#348,#267,#268);
#226=AXIS2_PLACEMENT_3D('',#349,#269,#270);
#227=AXIS2_PLACEMENT_3D('',#351,#271,#272);
#228=AXIS2_PLACEMENT_3D('',#352,#273,#274);
#229=AXIS2_PLACEMENT_3D('',#354,#275,#276);
#230=AXIS2_PLACEMENT_3D('',#355,#277,#278);
#231=DIRECTION('',(0.,0.,1.));
#232=DIRECTION('',(1.,0.,0.));
#233=DIRECTION('',(0.997184419441881,0.0749882232244468,0.));
#234=DIRECTION('',(-0.0749882232244468,0.997184419441881,0.));
#235=DIRECTION('',(0.,0.,-1.));
#236=DIRECTION('',(0.0749882232244468,-0.997184419441881,0.));
#237=DIRECTION('',(0.,0.,-1.));
#238=DIRECTION('',(0.433650503423911,0.901081151106929,0.));
#239=DIRECTION('',(-0.901081151106929,0.433650503423911,0.));
#240=DIRECTION('',(0.901081151106929,-0.433650503423911,0.));
#241=DIRECTION('',(0.,0.,-1.));
#242=DIRECTION('',(-0.563533916017969,0.826092927882483,0.));
#243=DIRECTION('',(-0.826092927882483,-0.563533916017969,0.));
#244=DIRECTION('',(0.826092927882483,0.563533916017969,0.));
#245=DIRECTION('',(0.,0.,-1.));
#246=DIRECTION('',(-0.997184419441881,-0.0749882232244446,0.));
#247=DIRECTION('',(0.0749882232244446,-0.997184419441881,0.));
#248=DIRECTION('',(-0.0749882232244446,0.997184419441881,0.));
#249=DIRECTION('',(0.,0.,-1.));
#250=DIRECTION('',(-0.433650503423913,-0.901081151106928,0.));
#251=DIRECTION('',(0.901081151106928,-0.433650503423913,0.));
#252=DIRECTION('',(-0.901081151106928,0.433650503423913,0.));
#253=DIRECTION('',(0.,0.,-1.));
#254=DIRECTION('',(0.563533916017969,-0.826092927882483,0.));
#255=DIRECTION('',(0.826092927882483,0.563533916017969,0.));
#256=DIRECTION('',(-0.826092927882483,-0.563533916017969,0.));
#257=DIRECTION('',(0.,0.,1.));
#258=DIRECTION('',(1.,0.,0.));
#259=DIRECTION('',(0.,0.,-1.));
#260=DIRECTION('',(0.,-1.,0.));
#261=DIRECTION('',(0.,0.,1.));
#262=DIRECTION('',(1.,0.,0.));
#263=DIRECTION('',(0.,0.,-1.));
#264=DIRECTION('',(-1.,0.,0.));
#265=DIRECTION('',(0.,0.,-1.));
#266=DIRECTION('',(1.,0.,0.));
#267=DIRECTION('',(0.,0.,1.));
#268=DIRECTION('',(1.,0.,0.));
#269=DIRECTION('',(0.,0.,-1.));
#270=DIRECTION('',(1.,0.,0.));
#271=DIRECTION('',(0.,0.,-1.));
#272=DIRECTION('',(-1.,0.,0.));
#273=DIRECTION('',(0.,0.,-1.));
#274=DIRECTION('',(-1.,0.,0.));
#275=DIRECTION('',(0.,0.,-1.));
#276=DIRECTION('',(0.,-1.,0.));
#277=DIRECTION('',(0.,0.,-1.));
#278=DIRECTION('',(-1.,0.,0.));
#279=CARTESIAN_POINT('',(0.,0.,0.));
#280=CARTESIAN_POINT('',(-5.20239445153282,2.50368234886012,5.));
#281=CARTESIAN_POINT('',(-5.20239445153282,2.50368234886012,4.42432621665802));
#282=CARTESIAN_POINT('',(-5.13023700009168,1.544141193866,4.55324333197406));
#283=CARTESIAN_POINT('',(-4.98592209720939,-0.374941116122232,4.70992794461534));
#284=CARTESIAN_POINT('',(-4.84160719432711,-2.29402342611047,4.55324333197406));
#285=CARTESIAN_POINT('',(-4.76944974288596,-3.25356458110458,4.42432621665802));
#286=CARTESIAN_POINT('',(-5.20239445153283,2.50368234886012,4.4243262166578));
#287=CARTESIAN_POINT('',(-4.76944974288596,-3.25356458110458,4.4243262166578));
#288=CARTESIAN_POINT('',(-5.20239445153283,2.50368234886012,5.));
#289=CARTESIAN_POINT('',(-5.20239445153283,2.50368234886012,0.));
#290=CARTESIAN_POINT('',(-5.20239445153282,2.50368234886012,0.));
#291=CARTESIAN_POINT('',(-4.76944974288596,-3.25356458110458,0.));
#292=CARTESIAN_POINT('',(-4.76944974288596,-3.25356458110458,5.));
#293=CARTESIAN_POINT('',(-4.76944974288596,-3.25356458110458,5.));
#294=CARTESIAN_POINT('',(-4.76944974288596,-3.25356458110458,4.42432621665807));
#295=CARTESIAN_POINT('',(-3.90238400096382,-3.67084497258127,4.55324333197411));
#296=CARTESIAN_POINT('',(-2.16825251711955,-4.50540575553464,4.70992794461529));
#297=CARTESIAN_POINT('',(-0.434121033275267,-5.33996653848801,4.55324333197411));
#298=CARTESIAN_POINT('',(0.432944708646872,-5.7572469299647,4.42432621665807));
#299=CARTESIAN_POINT('',(0.432944708646871,-5.7572469299647,4.4243262166578));
#300=CARTESIAN_POINT('',(-4.76944974288596,-3.25356458110458,0.));
#301=CARTESIAN_POINT('',(0.432944708646871,-5.7572469299647,0.));
#302=CARTESIAN_POINT('',(0.432944708646871,-5.7572469299647,5.));
#303=CARTESIAN_POINT('',(0.432944708646871,-5.7572469299647,5.));
#304=CARTESIAN_POINT('',(0.432944708646871,-5.7572469299647,4.42432621665812));
#305=CARTESIAN_POINT('',(1.22785299912786,-5.21498616644727,4.55324333197416));
#306=CARTESIAN_POINT('',(2.81766958008985,-4.13046463941241,4.70992794461524));
#307=CARTESIAN_POINT('',(4.40748616105184,-3.04594311237756,4.55324333197416));
#308=CARTESIAN_POINT('',(5.20239445153283,-2.50368234886013,4.42432621665812));
#309=CARTESIAN_POINT('',(5.20239445153283,-2.50368234886013,4.4243262166578));
#310=CARTESIAN_POINT('',(0.432944708646871,-5.7572469299647,0.));
#311=CARTESIAN_POINT('',(5.20239445153283,-2.50368234886013,0.));
#312=CARTESIAN_POINT('',(5.20239445153283,-2.50368234886013,5.));
#313=CARTESIAN_POINT('',(5.20239445153283,-2.50368234886013,5.));
#314=CARTESIAN_POINT('',(5.20239445153283,-2.50368234886013,4.42432621665802));
#315=CARTESIAN_POINT('',(5.13023700009169,-1.54414119386601,4.55324333197406));
#316=CARTESIAN_POINT('',(4.9859220972094,0.374941116122222,4.70992794461534));
#317=CARTESIAN_POINT('',(4.84160719432712,2.29402342611046,4.55324333197406));
#318=CARTESIAN_POINT('',(4.76944974288598,3.25356458110458,4.42432621665802));
#319=CARTESIAN_POINT('',(4.76944974288598,3.25356458110457,4.4243262166578));
#320=CARTESIAN_POINT('',(5.20239445153283,-2.50368234886013,0.));
#321=CARTESIAN_POINT('',(4.76944974288598,3.25356458110457,0.));
#322=CARTESIAN_POINT('',(4.76944974288598,3.25356458110457,5.));
#323=CARTESIAN_POINT('',(4.76944974288598,3.25356458110457,5.));
#324=CARTESIAN_POINT('',(4.76944974288598,3.25356458110457,4.42432621665807));
#325=CARTESIAN_POINT('',(3.90238400096384,3.67084497258126,4.55324333197411));
#326=CARTESIAN_POINT('',(2.16825251711957,4.50540575553464,4.70992794461529));
#327=CARTESIAN_POINT('',(0.43412103327529,5.33996653848801,4.55324333197411));
#328=CARTESIAN_POINT('',(-0.432944708646848,5.7572469299647,4.42432621665807));
#329=CARTESIAN_POINT('',(-0.432944708646848,5.7572469299647,4.4243262166578));
#330=CARTESIAN_POINT('',(4.76944974288598,3.25356458110457,0.));
#331=CARTESIAN_POINT('',(-0.432944708646848,5.7572469299647,0.));
#332=CARTESIAN_POINT('',(-0.432944708646848,5.7572469299647,5.));
#333=CARTESIAN_POINT('',(-0.432944708646848,5.7572469299647,5.));
#334=CARTESIAN_POINT('',(-0.432944708646848,5.7572469299647,4.42432621665812));
#335=CARTESIAN_POINT('',(-1.22785299912784,5.21498616644727,4.55324333197416));
#336=CARTESIAN_POINT('',(-2.81766958008984,4.13046463941241,4.70992794461524));
#337=CARTESIAN_POINT('',(-4.40748616105183,3.04594311237755,4.55324333197416));
#338=CARTESIAN_POINT('',(-5.20239445153282,2.50368234886012,4.42432621665812));
#339=CARTESIAN_POINT('',(-0.432944708646848,5.7572469299647,0.));
#340=CARTESIAN_POINT('',(0.,0.,5.));
#341=CARTESIAN_POINT('',(-3.85185988877447E-31,-1.92592994438724E-31,5.));
#342=CARTESIAN_POINT('',(-3.85185988877447E-31,-3.5,5.));
#343=CARTESIAN_POINT('',(0.,0.,5.));
#344=CARTESIAN_POINT('',(3.62505888387776,0.,5.));
#345=CARTESIAN_POINT('',(3.30643715532042E-15,0.,0.));
#346=CARTESIAN_POINT('',(3.30643715532042E-15,0.,0.));
#347=CARTESIAN_POINT('',(6.,0.,0.));
#348=CARTESIAN_POINT('',(3.30643715532042E-15,0.,-1.));
#349=CARTESIAN_POINT('',(3.30643715532042E-15,0.,-1.));
#350=CARTESIAN_POINT('',(6.,0.,-1.));
#351=CARTESIAN_POINT('',(3.30643715532042E-15,0.,-1.));
#352=CARTESIAN_POINT('',(-3.85185988877447E-31,-1.92592994438724E-31,-1.));
#353=CARTESIAN_POINT('',(-3.5,-1.92592994438724E-31,-1.));
#354=CARTESIAN_POINT('',(-3.85185988877447E-31,-1.92592994438724E-31,5.));
#355=CARTESIAN_POINT('',(0.,0.,5.53513792130338));
#356=MECHANICAL_DESIGN_GEOMETRIC_PRESENTATION_REPRESENTATION('',(#202),
#357);
#357=(
GEOMETRIC_REPRESENTATION_CONTEXT(3)
GLOBAL_UNCERTAINTY_ASSIGNED_CONTEXT((#358))
GLOBAL_UNIT_ASSIGNED_CONTEXT((#361,#360,#359))
REPRESENTATION_CONTEXT('RearWheel_nut','TOP_LEVEL_ASSEMBLY_PART')
);
#358=UNCERTAINTY_MEASURE_WITH_UNIT(LENGTH_MEASURE(0.005),#361,
'DISTANCE_ACCURACY_VALUE','Maximum Tolerance applied to model');
#359=(
NAMED_UNIT(*)
SI_UNIT($,.STERADIAN.)
SOLID_ANGLE_UNIT()
);
#360=(
NAMED_UNIT(*)
PLANE_ANGLE_UNIT()
SI_UNIT($,.RADIAN.)
);
#361=(
LENGTH_UNIT()
NAMED_UNIT(*)
SI_UNIT(.MILLI.,.METRE.)
);
#362=PRODUCT_DEFINITION_SHAPE('','',#363);
#363=PRODUCT_DEFINITION('','',#365,#364);
#364=PRODUCT_DEFINITION_CONTEXT('',#371,'design');
#365=PRODUCT_DEFINITION_FORMATION_WITH_SPECIFIED_SOURCE('','',#367,
 .NOT_KNOWN.);
#366=PRODUCT_RELATED_PRODUCT_CATEGORY('','',(#367));
#367=PRODUCT('RearWheel_nut','RearWheel_nut','RearWheel_nut',(#369));
#368=PRODUCT_CATEGORY('','');
#369=PRODUCT_CONTEXT('',#371,'mechanical');
#370=APPLICATION_PROTOCOL_DEFINITION('international standard',
'automotive_design',2010,#371);
#371=APPLICATION_CONTEXT(
'core data for automotive mechanical design processes');
ENDSEC;
END-ISO-10303-21;
