ISO-10303-21;
HEADER;
/* Generated by software containing ST-Developer
 * from STEP Tools, Inc. (www.steptools.com) 
 */
/* OPTION: strings as raw bytes, not using required /X/ escapes */

FILE_DESCRIPTION(
/* description */ ('Unknown'),
/* implementation_level */ '2;1');

FILE_NAME(
/* name */ 'Mountig_Bracket_M8',
/* time_stamp */ '2023-03-05T10:54:10+01:00',
/* author */ ('Unknown'),
/* organization */ ('Unknown'),
/* preprocessor_version */ 'ST-DEVELOPER v18.1',
/* originating_system */ 'Solid Edge',
/* authorisation */ 'Unknown');

FILE_SCHEMA (('AUTOMOTIVE_DESIGN {1 0 10303 214 3 1 1}'));
ENDSEC;

DATA;
#10=PROPERTY_DEFINITION_REPRESENTATION(#14,#12);
#11=PROPERTY_DEFINITION_REPRESENTATION(#15,#13);
#12=REPRESENTATION('',(#16),#622);
#13=REPRESENTATION('',(#17),#622);
#14=PROPERTY_DEFINITION('pmi validation property','',#627);
#15=PROPERTY_DEFINITION('pmi validation property','',#627);
#16=VALUE_REPRESENTATION_ITEM('number of annotations',COUNT_MEASURE(0.));
#17=VALUE_REPRESENTATION_ITEM('number of views',COUNT_MEASURE(0.));
#18=SHAPE_REPRESENTATION_RELATIONSHIP('','',#413,#19);
#19=ADVANCED_BREP_SHAPE_REPRESENTATION('',(#411),#622);
#20=SPHERICAL_SURFACE('',#441,2.5);
#21=DRAUGHTING_PRE_DEFINED_COLOUR('yellow');
#22=B_SPLINE_CURVE_WITH_KNOTS('',3,(#581,#582,#583,#584,#585,#586,#587,
#588,#589),.UNSPECIFIED.,.F.,.F.,(4,1,1,1,1,1,4),(0.00285025732678756,0.00486398835844327,
0.00587085387427112,0.00687771939009897,0.00788458490592682,0.00889145042175468,
0.0109051814534104),.UNSPECIFIED.);
#23=B_SPLINE_CURVE_WITH_KNOTS('',3,(#590,#591,#592,#593,#594,#595,#596,
#597,#598),.UNSPECIFIED.,.F.,.F.,(4,1,1,1,1,1,4),(0.0191125939447943,0.0211418612142202,
0.0221564948489332,0.0231711284836462,0.0241857621183591,0.0252003957530721,
0.0272296630224981),.UNSPECIFIED.);
#24=CYLINDRICAL_SURFACE('',#428,3.3235);
#25=CYLINDRICAL_SURFACE('',#435,16.0000000000001);
#26=CYLINDRICAL_SURFACE('',#436,16.0000000000001);
#27=LINE('',#529,#53);
#28=LINE('',#531,#54);
#29=LINE('',#533,#55);
#30=LINE('',#538,#56);
#31=LINE('',#542,#57);
#32=LINE('',#544,#58);
#33=LINE('',#547,#59);
#34=LINE('',#551,#60);
#35=LINE('',#555,#61);
#36=LINE('',#557,#62);
#37=LINE('',#559,#63);
#38=LINE('',#561,#64);
#39=LINE('',#563,#65);
#40=LINE('',#571,#66);
#41=LINE('',#573,#67);
#42=LINE('',#575,#68);
#43=LINE('',#577,#69);
#44=LINE('',#579,#70);
#45=LINE('',#602,#71);
#46=LINE('',#603,#72);
#47=LINE('',#605,#73);
#48=LINE('',#607,#74);
#49=LINE('',#609,#75);
#50=LINE('',#611,#76);
#51=LINE('',#613,#77);
#52=LINE('',#615,#78);
#53=VECTOR('',#448,1000.);
#54=VECTOR('',#449,1000.);
#55=VECTOR('',#450,1000.);
#56=VECTOR('',#455,1000.);
#57=VECTOR('',#458,1000.);
#58=VECTOR('',#461,1000.);
#59=VECTOR('',#462,1000.);
#60=VECTOR('',#465,1000.);
#61=VECTOR('',#470,1000.);
#62=VECTOR('',#471,1000.);
#63=VECTOR('',#472,1000.);
#64=VECTOR('',#473,1000.);
#65=VECTOR('',#474,1000.);
#66=VECTOR('',#483,1000.);
#67=VECTOR('',#484,1000.);
#68=VECTOR('',#485,1000.);
#69=VECTOR('',#486,1000.);
#70=VECTOR('',#487,1000.);
#71=VECTOR('',#494,1000.);
#72=VECTOR('',#495,1000.);
#73=VECTOR('',#498,1000.);
#74=VECTOR('',#501,1000.);
#75=VECTOR('',#504,1000.);
#76=VECTOR('',#507,1000.);
#77=VECTOR('',#510,1000.);
#78=VECTOR('',#513,1000.);
#79=ORIENTED_EDGE('',*,*,#157,.F.);
#80=ORIENTED_EDGE('',*,*,#158,.T.);
#81=ORIENTED_EDGE('',*,*,#159,.F.);
#82=ORIENTED_EDGE('',*,*,#160,.F.);
#83=ORIENTED_EDGE('',*,*,#161,.F.);
#84=ORIENTED_EDGE('',*,*,#162,.F.);
#85=ORIENTED_EDGE('',*,*,#163,.F.);
#86=ORIENTED_EDGE('',*,*,#164,.T.);
#87=ORIENTED_EDGE('',*,*,#165,.F.);
#88=ORIENTED_EDGE('',*,*,#166,.T.);
#89=ORIENTED_EDGE('',*,*,#167,.F.);
#90=ORIENTED_EDGE('',*,*,#168,.F.);
#91=ORIENTED_EDGE('',*,*,#169,.F.);
#92=ORIENTED_EDGE('',*,*,#170,.F.);
#93=ORIENTED_EDGE('',*,*,#171,.T.);
#94=ORIENTED_EDGE('',*,*,#172,.F.);
#95=ORIENTED_EDGE('',*,*,#173,.F.);
#96=ORIENTED_EDGE('',*,*,#174,.T.);
#97=ORIENTED_EDGE('',*,*,#175,.T.);
#98=ORIENTED_EDGE('',*,*,#159,.T.);
#99=ORIENTED_EDGE('',*,*,#176,.F.);
#100=ORIENTED_EDGE('',*,*,#165,.T.);
#101=ORIENTED_EDGE('',*,*,#177,.T.);
#102=ORIENTED_EDGE('',*,*,#178,.T.);
#103=ORIENTED_EDGE('',*,*,#179,.T.);
#104=ORIENTED_EDGE('',*,*,#180,.F.);
#105=ORIENTED_EDGE('',*,*,#181,.F.);
#106=ORIENTED_EDGE('',*,*,#182,.F.);
#107=ORIENTED_EDGE('',*,*,#183,.F.);
#108=ORIENTED_EDGE('',*,*,#163,.T.);
#109=ORIENTED_EDGE('',*,*,#184,.T.);
#110=ORIENTED_EDGE('',*,*,#167,.T.);
#111=ORIENTED_EDGE('',*,*,#185,.F.);
#112=ORIENTED_EDGE('',*,*,#185,.T.);
#113=ORIENTED_EDGE('',*,*,#180,.T.);
#114=ORIENTED_EDGE('',*,*,#186,.T.);
#115=ORIENTED_EDGE('',*,*,#172,.T.);
#116=ORIENTED_EDGE('',*,*,#187,.F.);
#117=ORIENTED_EDGE('',*,*,#187,.T.);
#118=ORIENTED_EDGE('',*,*,#171,.F.);
#119=ORIENTED_EDGE('',*,*,#188,.F.);
#120=ORIENTED_EDGE('',*,*,#181,.T.);
#121=ORIENTED_EDGE('',*,*,#170,.T.);
#122=ORIENTED_EDGE('',*,*,#189,.T.);
#123=ORIENTED_EDGE('',*,*,#182,.T.);
#124=ORIENTED_EDGE('',*,*,#188,.T.);
#125=ORIENTED_EDGE('',*,*,#186,.F.);
#126=ORIENTED_EDGE('',*,*,#179,.F.);
#127=ORIENTED_EDGE('',*,*,#190,.T.);
#128=ORIENTED_EDGE('',*,*,#173,.T.);
#129=ORIENTED_EDGE('',*,*,#178,.F.);
#130=ORIENTED_EDGE('',*,*,#191,.F.);
#131=ORIENTED_EDGE('',*,*,#174,.F.);
#132=ORIENTED_EDGE('',*,*,#190,.F.);
#133=ORIENTED_EDGE('',*,*,#168,.T.);
#134=ORIENTED_EDGE('',*,*,#184,.F.);
#135=ORIENTED_EDGE('',*,*,#162,.T.);
#136=ORIENTED_EDGE('',*,*,#192,.T.);
#137=ORIENTED_EDGE('',*,*,#160,.T.);
#138=ORIENTED_EDGE('',*,*,#175,.F.);
#139=ORIENTED_EDGE('',*,*,#191,.T.);
#140=ORIENTED_EDGE('',*,*,#177,.F.);
#141=ORIENTED_EDGE('',*,*,#176,.T.);
#142=ORIENTED_EDGE('',*,*,#189,.F.);
#143=ORIENTED_EDGE('',*,*,#169,.T.);
#144=ORIENTED_EDGE('',*,*,#158,.F.);
#145=ORIENTED_EDGE('',*,*,#193,.F.);
#146=ORIENTED_EDGE('',*,*,#164,.F.);
#147=ORIENTED_EDGE('',*,*,#183,.T.);
#148=ORIENTED_EDGE('',*,*,#166,.F.);
#149=ORIENTED_EDGE('',*,*,#192,.F.);
#150=ORIENTED_EDGE('',*,*,#194,.F.);
#151=ORIENTED_EDGE('',*,*,#195,.F.);
#152=ORIENTED_EDGE('',*,*,#193,.T.);
#153=ORIENTED_EDGE('',*,*,#194,.T.);
#154=ORIENTED_EDGE('',*,*,#161,.T.);
#155=ORIENTED_EDGE('',*,*,#195,.T.);
#156=ORIENTED_EDGE('',*,*,#157,.T.);
#157=EDGE_CURVE('',#196,#197,#221,.T.);
#158=EDGE_CURVE('',#196,#198,#27,.T.);
#159=EDGE_CURVE('',#199,#198,#28,.T.);
#160=EDGE_CURVE('',#197,#199,#29,.T.);
#161=EDGE_CURVE('',#200,#201,#222,.T.);
#162=EDGE_CURVE('',#202,#200,#30,.T.);
#163=EDGE_CURVE('',#203,#202,#223,.F.);
#164=EDGE_CURVE('',#203,#201,#31,.T.);
#165=EDGE_CURVE('',#204,#205,#32,.T.);
#166=EDGE_CURVE('',#204,#206,#33,.T.);
#167=EDGE_CURVE('',#207,#206,#224,.F.);
#168=EDGE_CURVE('',#205,#207,#34,.T.);
#169=EDGE_CURVE('',#208,#198,#225,.T.);
#170=EDGE_CURVE('',#209,#208,#35,.T.);
#171=EDGE_CURVE('',#209,#210,#36,.T.);
#172=EDGE_CURVE('',#211,#210,#37,.T.);
#173=EDGE_CURVE('',#212,#211,#38,.T.);
#174=EDGE_CURVE('',#212,#213,#39,.T.);
#175=EDGE_CURVE('',#213,#199,#226,.T.);
#176=EDGE_CURVE('',#204,#214,#227,.F.);
#177=EDGE_CURVE('',#205,#215,#228,.T.);
#178=EDGE_CURVE('',#215,#216,#40,.T.);
#179=EDGE_CURVE('',#216,#217,#41,.T.);
#180=EDGE_CURVE('',#218,#217,#42,.T.);
#181=EDGE_CURVE('',#219,#218,#43,.T.);
#182=EDGE_CURVE('',#214,#219,#44,.T.);
#183=EDGE_CURVE('',#203,#206,#22,.T.);
#184=EDGE_CURVE('',#202,#207,#23,.T.);
#185=EDGE_CURVE('',#220,#220,#229,.F.);
#186=EDGE_CURVE('',#217,#211,#45,.T.);
#187=EDGE_CURVE('',#218,#210,#46,.T.);
#188=EDGE_CURVE('',#219,#209,#47,.T.);
#189=EDGE_CURVE('',#208,#214,#48,.T.);
#190=EDGE_CURVE('',#216,#212,#49,.T.);
#191=EDGE_CURVE('',#213,#215,#50,.T.);
#192=EDGE_CURVE('',#200,#197,#51,.T.);
#193=EDGE_CURVE('',#201,#196,#52,.T.);
#194=EDGE_CURVE('',#197,#200,#230,.T.);
#195=EDGE_CURVE('',#201,#196,#231,.T.);
#196=VERTEX_POINT('',#527);
#197=VERTEX_POINT('',#528);
#198=VERTEX_POINT('',#530);
#199=VERTEX_POINT('',#532);
#200=VERTEX_POINT('',#536);
#201=VERTEX_POINT('',#537);
#202=VERTEX_POINT('',#539);
#203=VERTEX_POINT('',#541);
#204=VERTEX_POINT('',#545);
#205=VERTEX_POINT('',#546);
#206=VERTEX_POINT('',#548);
#207=VERTEX_POINT('',#550);
#208=VERTEX_POINT('',#554);
#209=VERTEX_POINT('',#556);
#210=VERTEX_POINT('',#558);
#211=VERTEX_POINT('',#560);
#212=VERTEX_POINT('',#562);
#213=VERTEX_POINT('',#564);
#214=VERTEX_POINT('',#568);
#215=VERTEX_POINT('',#570);
#216=VERTEX_POINT('',#572);
#217=VERTEX_POINT('',#574);
#218=VERTEX_POINT('',#576);
#219=VERTEX_POINT('',#578);
#220=VERTEX_POINT('',#600);
#221=CIRCLE('',#416,2.29128784747792);
#222=CIRCLE('',#418,2.29128784747792);
#223=CIRCLE('',#419,3.3235);
#224=CIRCLE('',#421,3.3235);
#225=CIRCLE('',#423,16.0000000000001);
#226=CIRCLE('',#424,16.0000000000001);
#227=CIRCLE('',#426,16.0000000000001);
#228=CIRCLE('',#427,16.0000000000001);
#229=CIRCLE('',#429,3.3235);
#230=CIRCLE('',#438,2.29128784747792);
#231=CIRCLE('',#440,2.29128784747792);
#232=EDGE_LOOP('',(#79,#80,#81,#82));
#233=EDGE_LOOP('',(#83,#84,#85,#86));
#234=EDGE_LOOP('',(#87,#88,#89,#90));
#235=EDGE_LOOP('',(#91,#92,#93,#94,#95,#96,#97,#98));
#236=EDGE_LOOP('',(#99,#100,#101,#102,#103,#104,#105,#106));
#237=EDGE_LOOP('',(#107,#108,#109,#110));
#238=EDGE_LOOP('',(#111));
#239=EDGE_LOOP('',(#112));
#240=EDGE_LOOP('',(#113,#114,#115,#116));
#241=EDGE_LOOP('',(#117,#118,#119,#120));
#242=EDGE_LOOP('',(#121,#122,#123,#124));
#243=EDGE_LOOP('',(#125,#126,#127,#128));
#244=EDGE_LOOP('',(#129,#130,#131,#132));
#245=EDGE_LOOP('',(#133,#134,#135,#136,#137,#138,#139,#140));
#246=EDGE_LOOP('',(#141,#142,#143,#144,#145,#146,#147,#148));
#247=EDGE_LOOP('',(#149,#150));
#248=EDGE_LOOP('',(#151,#152));
#249=EDGE_LOOP('',(#153,#154,#155,#156));
#250=FACE_BOUND('',#232,.T.);
#251=FACE_BOUND('',#233,.T.);
#252=FACE_BOUND('',#234,.T.);
#253=FACE_BOUND('',#235,.T.);
#254=FACE_BOUND('',#236,.T.);
#255=FACE_BOUND('',#237,.T.);
#256=FACE_BOUND('',#238,.T.);
#257=FACE_BOUND('',#239,.T.);
#258=FACE_BOUND('',#240,.T.);
#259=FACE_BOUND('',#241,.T.);
#260=FACE_BOUND('',#242,.T.);
#261=FACE_BOUND('',#243,.T.);
#262=FACE_BOUND('',#244,.T.);
#263=FACE_BOUND('',#245,.T.);
#264=FACE_BOUND('',#246,.T.);
#265=FACE_BOUND('',#247,.T.);
#266=FACE_BOUND('',#248,.T.);
#267=FACE_BOUND('',#249,.T.);
#268=PLANE('',#415);
#269=PLANE('',#417);
#270=PLANE('',#420);
#271=PLANE('',#422);
#272=PLANE('',#425);
#273=PLANE('',#430);
#274=PLANE('',#431);
#275=PLANE('',#432);
#276=PLANE('',#433);
#277=PLANE('',#434);
#278=PLANE('',#437);
#279=PLANE('',#439);
#280=STYLED_ITEM('',(#296),#394);
#281=STYLED_ITEM('',(#297),#395);
#282=STYLED_ITEM('',(#298),#396);
#283=STYLED_ITEM('',(#299),#397);
#284=STYLED_ITEM('',(#300),#398);
#285=STYLED_ITEM('',(#301),#399);
#286=STYLED_ITEM('',(#302),#400);
#287=STYLED_ITEM('',(#303),#401);
#288=STYLED_ITEM('',(#304),#402);
#289=STYLED_ITEM('',(#305),#403);
#290=STYLED_ITEM('',(#306),#404);
#291=STYLED_ITEM('',(#307),#405);
#292=STYLED_ITEM('',(#308),#406);
#293=STYLED_ITEM('',(#309),#407);
#294=STYLED_ITEM('',(#310),#408);
#295=STYLED_ITEM('',(#311),#409);
#296=PRESENTATION_STYLE_ASSIGNMENT((#312));
#297=PRESENTATION_STYLE_ASSIGNMENT((#313));
#298=PRESENTATION_STYLE_ASSIGNMENT((#314));
#299=PRESENTATION_STYLE_ASSIGNMENT((#315));
#300=PRESENTATION_STYLE_ASSIGNMENT((#316));
#301=PRESENTATION_STYLE_ASSIGNMENT((#317));
#302=PRESENTATION_STYLE_ASSIGNMENT((#318));
#303=PRESENTATION_STYLE_ASSIGNMENT((#319));
#304=PRESENTATION_STYLE_ASSIGNMENT((#320));
#305=PRESENTATION_STYLE_ASSIGNMENT((#321));
#306=PRESENTATION_STYLE_ASSIGNMENT((#322));
#307=PRESENTATION_STYLE_ASSIGNMENT((#323));
#308=PRESENTATION_STYLE_ASSIGNMENT((#324));
#309=PRESENTATION_STYLE_ASSIGNMENT((#325));
#310=PRESENTATION_STYLE_ASSIGNMENT((#326));
#311=PRESENTATION_STYLE_ASSIGNMENT((#327));
#312=SURFACE_STYLE_USAGE(.BOTH.,#328);
#313=SURFACE_STYLE_USAGE(.BOTH.,#329);
#314=SURFACE_STYLE_USAGE(.BOTH.,#330);
#315=SURFACE_STYLE_USAGE(.BOTH.,#331);
#316=SURFACE_STYLE_USAGE(.BOTH.,#332);
#317=SURFACE_STYLE_USAGE(.BOTH.,#333);
#318=SURFACE_STYLE_USAGE(.BOTH.,#334);
#319=SURFACE_STYLE_USAGE(.BOTH.,#335);
#320=SURFACE_STYLE_USAGE(.BOTH.,#336);
#321=SURFACE_STYLE_USAGE(.BOTH.,#337);
#322=SURFACE_STYLE_USAGE(.BOTH.,#338);
#323=SURFACE_STYLE_USAGE(.BOTH.,#339);
#324=SURFACE_STYLE_USAGE(.BOTH.,#340);
#325=SURFACE_STYLE_USAGE(.BOTH.,#341);
#326=SURFACE_STYLE_USAGE(.BOTH.,#342);
#327=SURFACE_STYLE_USAGE(.BOTH.,#343);
#328=SURFACE_SIDE_STYLE('',(#344));
#329=SURFACE_SIDE_STYLE('',(#345));
#330=SURFACE_SIDE_STYLE('',(#346));
#331=SURFACE_SIDE_STYLE('',(#347));
#332=SURFACE_SIDE_STYLE('',(#348));
#333=SURFACE_SIDE_STYLE('',(#349));
#334=SURFACE_SIDE_STYLE('',(#350));
#335=SURFACE_SIDE_STYLE('',(#351));
#336=SURFACE_SIDE_STYLE('',(#352));
#337=SURFACE_SIDE_STYLE('',(#353));
#338=SURFACE_SIDE_STYLE('',(#354));
#339=SURFACE_SIDE_STYLE('',(#355));
#340=SURFACE_SIDE_STYLE('',(#356));
#341=SURFACE_SIDE_STYLE('',(#357));
#342=SURFACE_SIDE_STYLE('',(#358));
#343=SURFACE_SIDE_STYLE('',(#359));
#344=SURFACE_STYLE_FILL_AREA(#360);
#345=SURFACE_STYLE_FILL_AREA(#361);
#346=SURFACE_STYLE_FILL_AREA(#362);
#347=SURFACE_STYLE_FILL_AREA(#363);
#348=SURFACE_STYLE_FILL_AREA(#364);
#349=SURFACE_STYLE_FILL_AREA(#365);
#350=SURFACE_STYLE_FILL_AREA(#366);
#351=SURFACE_STYLE_FILL_AREA(#367);
#352=SURFACE_STYLE_FILL_AREA(#368);
#353=SURFACE_STYLE_FILL_AREA(#369);
#354=SURFACE_STYLE_FILL_AREA(#370);
#355=SURFACE_STYLE_FILL_AREA(#371);
#356=SURFACE_STYLE_FILL_AREA(#372);
#357=SURFACE_STYLE_FILL_AREA(#373);
#358=SURFACE_STYLE_FILL_AREA(#374);
#359=SURFACE_STYLE_FILL_AREA(#375);
#360=FILL_AREA_STYLE('',(#376));
#361=FILL_AREA_STYLE('',(#377));
#362=FILL_AREA_STYLE('',(#378));
#363=FILL_AREA_STYLE('',(#379));
#364=FILL_AREA_STYLE('',(#380));
#365=FILL_AREA_STYLE('',(#381));
#366=FILL_AREA_STYLE('',(#382));
#367=FILL_AREA_STYLE('',(#383));
#368=FILL_AREA_STYLE('',(#384));
#369=FILL_AREA_STYLE('',(#385));
#370=FILL_AREA_STYLE('',(#386));
#371=FILL_AREA_STYLE('',(#387));
#372=FILL_AREA_STYLE('',(#388));
#373=FILL_AREA_STYLE('',(#389));
#374=FILL_AREA_STYLE('',(#390));
#375=FILL_AREA_STYLE('',(#391));
#376=FILL_AREA_STYLE_COLOUR('',#392);
#377=FILL_AREA_STYLE_COLOUR('',#392);
#378=FILL_AREA_STYLE_COLOUR('',#392);
#379=FILL_AREA_STYLE_COLOUR('',#392);
#380=FILL_AREA_STYLE_COLOUR('',#392);
#381=FILL_AREA_STYLE_COLOUR('',#393);
#382=FILL_AREA_STYLE_COLOUR('',#392);
#383=FILL_AREA_STYLE_COLOUR('',#392);
#384=FILL_AREA_STYLE_COLOUR('',#392);
#385=FILL_AREA_STYLE_COLOUR('',#392);
#386=FILL_AREA_STYLE_COLOUR('',#392);
#387=FILL_AREA_STYLE_COLOUR('',#392);
#388=FILL_AREA_STYLE_COLOUR('',#392);
#389=FILL_AREA_STYLE_COLOUR('',#21);
#390=FILL_AREA_STYLE_COLOUR('',#21);
#391=FILL_AREA_STYLE_COLOUR('',#21);
#392=COLOUR_RGB('',0.800000011920929,0.403305768966675,0.);
#393=COLOUR_RGB('',0.1875,0.75,0.581249892711639);
#394=ADVANCED_FACE('',(#250),#268,.F.);
#395=ADVANCED_FACE('',(#251),#269,.F.);
#396=ADVANCED_FACE('',(#252),#270,.F.);
#397=ADVANCED_FACE('',(#253),#271,.T.);
#398=ADVANCED_FACE('',(#254),#272,.T.);
#399=ADVANCED_FACE('',(#255,#256),#24,.F.);
#400=ADVANCED_FACE('',(#257,#258),#273,.T.);
#401=ADVANCED_FACE('',(#259),#274,.F.);
#402=ADVANCED_FACE('',(#260),#275,.T.);
#403=ADVANCED_FACE('',(#261),#276,.T.);
#404=ADVANCED_FACE('',(#262),#277,.F.);
#405=ADVANCED_FACE('',(#263),#25,.T.);
#406=ADVANCED_FACE('',(#264),#26,.T.);
#407=ADVANCED_FACE('',(#265),#278,.T.);
#408=ADVANCED_FACE('',(#266),#279,.T.);
#409=ADVANCED_FACE('',(#267),#20,.T.);
#410=CLOSED_SHELL('',(#394,#395,#396,#397,#398,#399,#400,#401,#402,#403,
#404,#405,#406,#407,#408,#409));
#411=MANIFOLD_SOLID_BREP('',#410);
#412=SHAPE_DEFINITION_REPRESENTATION(#627,#413);
#413=SHAPE_REPRESENTATION('Mountig_Bracket_M8',(#414),#622);
#414=AXIS2_PLACEMENT_3D('',#524,#442,#443);
#415=AXIS2_PLACEMENT_3D('',#525,#444,#445);
#416=AXIS2_PLACEMENT_3D('',#526,#446,#447);
#417=AXIS2_PLACEMENT_3D('',#534,#451,#452);
#418=AXIS2_PLACEMENT_3D('',#535,#453,#454);
#419=AXIS2_PLACEMENT_3D('',#540,#456,#457);
#420=AXIS2_PLACEMENT_3D('',#543,#459,#460);
#421=AXIS2_PLACEMENT_3D('',#549,#463,#464);
#422=AXIS2_PLACEMENT_3D('',#552,#466,#467);
#423=AXIS2_PLACEMENT_3D('',#553,#468,#469);
#424=AXIS2_PLACEMENT_3D('',#565,#475,#476);
#425=AXIS2_PLACEMENT_3D('',#566,#477,#478);
#426=AXIS2_PLACEMENT_3D('',#567,#479,#480);
#427=AXIS2_PLACEMENT_3D('',#569,#481,#482);
#428=AXIS2_PLACEMENT_3D('',#580,#488,#489);
#429=AXIS2_PLACEMENT_3D('',#599,#490,#491);
#430=AXIS2_PLACEMENT_3D('',#601,#492,#493);
#431=AXIS2_PLACEMENT_3D('',#604,#496,#497);
#432=AXIS2_PLACEMENT_3D('',#606,#499,#500);
#433=AXIS2_PLACEMENT_3D('',#608,#502,#503);
#434=AXIS2_PLACEMENT_3D('',#610,#505,#506);
#435=AXIS2_PLACEMENT_3D('',#612,#508,#509);
#436=AXIS2_PLACEMENT_3D('',#614,#511,#512);
#437=AXIS2_PLACEMENT_3D('',#616,#514,#515);
#438=AXIS2_PLACEMENT_3D('',#617,#516,#517);
#439=AXIS2_PLACEMENT_3D('',#618,#518,#519);
#440=AXIS2_PLACEMENT_3D('',#619,#520,#521);
#441=AXIS2_PLACEMENT_3D('',#620,#522,#523);
#442=DIRECTION('',(0.,0.,1.));
#443=DIRECTION('',(1.,0.,0.));
#444=DIRECTION('',(0.,0.,1.));
#445=DIRECTION('',(1.,0.,0.));
#446=DIRECTION('',(0.,0.,-1.));
#447=DIRECTION('',(-1.,0.,0.));
#448=DIRECTION('',(1.,-2.08166817117217E-15,0.));
#449=DIRECTION('',(0.,1.,0.));
#450=DIRECTION('',(1.,-2.08166817117217E-15,0.));
#451=DIRECTION('',(0.,0.,1.));
#452=DIRECTION('',(1.,0.,0.));
#453=DIRECTION('',(0.,0.,-1.));
#454=DIRECTION('',(-1.,0.,0.));
#455=DIRECTION('',(1.,-2.08166817117217E-15,0.));
#456=DIRECTION('',(0.,0.,1.));
#457=DIRECTION('',(1.,0.,0.));
#458=DIRECTION('',(1.,-2.08166817117217E-15,0.));
#459=DIRECTION('',(0.,0.,1.));
#460=DIRECTION('',(1.,0.,0.));
#461=DIRECTION('',(-2.08166817117217E-15,-1.,0.));
#462=DIRECTION('',(1.,-2.08166817117217E-15,0.));
#463=DIRECTION('',(0.,0.,1.));
#464=DIRECTION('',(1.,0.,0.));
#465=DIRECTION('',(1.,-2.08166817117217E-15,0.));
#466=DIRECTION('',(1.,-2.08166817117217E-15,0.));
#467=DIRECTION('',(2.08166817117217E-15,1.,0.));
#468=DIRECTION('',(-1.,2.08166817117217E-15,0.));
#469=DIRECTION('',(0.,0.,-1.));
#470=DIRECTION('',(9.0205620750794E-15,1.,0.));
#471=DIRECTION('',(0.,0.,1.));
#472=DIRECTION('',(2.08166817117217E-15,1.,0.));
#473=DIRECTION('',(0.,0.,1.));
#474=DIRECTION('',(-2.08166817117217E-15,-1.,0.));
#475=DIRECTION('',(1.,-2.08166817117217E-15,0.));
#476=DIRECTION('',(0.,0.,-1.));
#477=DIRECTION('',(-1.,-2.08166817117217E-15,0.));
#478=DIRECTION('',(2.08166817117217E-15,-1.,0.));
#479=DIRECTION('',(-1.,-2.08166817117217E-15,0.));
#480=DIRECTION('',(2.08166817117217E-15,-1.,0.));
#481=DIRECTION('',(-1.,-2.08166817117217E-15,0.));
#482=DIRECTION('',(2.08166817117217E-15,-1.,0.));
#483=DIRECTION('',(-2.08166817117217E-15,1.,0.));
#484=DIRECTION('',(0.,0.,1.));
#485=DIRECTION('',(2.08166817117217E-15,-1.,0.));
#486=DIRECTION('',(0.,0.,1.));
#487=DIRECTION('',(-2.08166817117217E-15,-1.,0.));
#488=DIRECTION('',(0.,0.,1.));
#489=DIRECTION('',(1.,0.,0.));
#490=DIRECTION('',(0.,0.,1.));
#491=DIRECTION('',(1.,0.,0.));
#492=DIRECTION('',(0.,0.,1.));
#493=DIRECTION('',(1.,0.,0.));
#494=DIRECTION('',(1.,0.,0.));
#495=DIRECTION('',(1.,0.,0.));
#496=DIRECTION('',(0.,-1.,0.));
#497=DIRECTION('',(0.,0.,-1.));
#498=DIRECTION('',(1.,0.,0.));
#499=DIRECTION('',(0.,0.,1.));
#500=DIRECTION('',(1.,0.,0.));
#501=DIRECTION('',(-1.,1.23908819712629E-16,0.));
#502=DIRECTION('',(0.,-1.,0.));
#503=DIRECTION('',(0.,0.,-1.));
#504=DIRECTION('',(1.,0.,0.));
#505=DIRECTION('',(0.,0.,-1.));
#506=DIRECTION('',(-1.,0.,0.));
#507=DIRECTION('',(-1.,-4.13029399042097E-17,0.));
#508=DIRECTION('',(1.,-2.08166817117217E-15,0.));
#509=DIRECTION('',(2.08166817117217E-15,1.,0.));
#510=DIRECTION('',(1.,-2.08166817117217E-15,0.));
#511=DIRECTION('',(1.,-2.08166817117217E-15,0.));
#512=DIRECTION('',(2.08166817117217E-15,1.,0.));
#513=DIRECTION('',(1.,-2.08166817117217E-15,0.));
#514=DIRECTION('',(0.,0.,1.));
#515=DIRECTION('',(1.,0.,0.));
#516=DIRECTION('',(0.,0.,-1.));
#517=DIRECTION('',(-1.,0.,0.));
#518=DIRECTION('',(0.,0.,1.));
#519=DIRECTION('',(1.,0.,0.));
#520=DIRECTION('',(0.,0.,-1.));
#521=DIRECTION('',(-1.,0.,0.));
#522=DIRECTION('',(0.,0.,-1.));
#523=DIRECTION('',(-1.,0.,0.));
#524=CARTESIAN_POINT('',(0.,0.,0.));
#525=CARTESIAN_POINT('',(0.,0.,-7.5));
#526=CARTESIAN_POINT('',(5.50000000000001,0.,-7.5));
#527=CARTESIAN_POINT('',(7.23205080756888,1.50000000000001,-7.5));
#528=CARTESIAN_POINT('',(7.23205080756886,-1.50000000000003,-7.5));
#529=CARTESIAN_POINT('',(-15.3118189982806,1.50000000000005,-7.5));
#530=CARTESIAN_POINT('',(10.5,1.5,-7.5));
#531=CARTESIAN_POINT('',(10.5,4.,-7.5));
#532=CARTESIAN_POINT('',(10.5,-1.50000000000004,-7.5));
#533=CARTESIAN_POINT('',(-15.3118189982806,-1.49999999999999,-7.5));
#534=CARTESIAN_POINT('',(0.,0.,-7.5));
#535=CARTESIAN_POINT('',(5.50000000000001,0.,-7.5));
#536=CARTESIAN_POINT('',(3.76794919243116,-1.50000000000003,-7.5));
#537=CARTESIAN_POINT('',(3.76794919243115,1.50000000000001,-7.5));
#538=CARTESIAN_POINT('',(-15.3118189982806,-1.49999999999999,-7.5));
#539=CARTESIAN_POINT('',(-0.284253508810985,-1.50000000000002,-7.5));
#540=CARTESIAN_POINT('',(-3.25,0.,-7.5));
#541=CARTESIAN_POINT('',(-0.284253508810985,1.50000000000002,-7.5));
#542=CARTESIAN_POINT('',(-15.3118189982806,1.50000000000005,-7.5));
#543=CARTESIAN_POINT('',(0.,0.,-7.5));
#544=CARTESIAN_POINT('',(-10.5,6.5,-7.5));
#545=CARTESIAN_POINT('',(-10.5,1.50000000000004,-7.5));
#546=CARTESIAN_POINT('',(-10.5,-1.5,-7.5));
#547=CARTESIAN_POINT('',(-15.3118189982806,1.50000000000005,-7.5));
#548=CARTESIAN_POINT('',(-6.215746491189,1.50000000000003,-7.5));
#549=CARTESIAN_POINT('',(-3.25,0.,-7.5));
#550=CARTESIAN_POINT('',(-6.21574649118902,-1.50000000000001,-7.5));
#551=CARTESIAN_POINT('',(-15.3118189982806,-1.49999999999999,-7.5));
#552=CARTESIAN_POINT('',(10.5,-6.5,-7.5));
#553=CARTESIAN_POINT('',(10.5,-8.25847518065147,5.17959629280882));
#554=CARTESIAN_POINT('',(10.5,6.5,-0.999999999999994));
#555=CARTESIAN_POINT('',(10.5,4.,-1.));
#556=CARTESIAN_POINT('',(10.5,4.,-1.));
#557=CARTESIAN_POINT('',(10.5,4.,-1.));
#558=CARTESIAN_POINT('',(10.5,4.,0.));
#559=CARTESIAN_POINT('',(10.5,-6.5,0.));
#560=CARTESIAN_POINT('',(10.5,-4.,0.));
#561=CARTESIAN_POINT('',(10.5,-4.,-1.));
#562=CARTESIAN_POINT('',(10.5,-4.,-1.));
#563=CARTESIAN_POINT('',(10.5,-6.5,-1.));
#564=CARTESIAN_POINT('',(10.5,-6.50000000000004,-0.999999999999994));
#565=CARTESIAN_POINT('',(10.5,8.25847518065143,5.17959629280882));
#566=CARTESIAN_POINT('',(-10.5,-4.,-7.5));
#567=CARTESIAN_POINT('',(-10.5,-8.25847518065143,5.17959629280882));
#568=CARTESIAN_POINT('',(-10.5,6.50000000000005,-0.999999999999994));
#569=CARTESIAN_POINT('',(-10.5,8.25847518065148,5.17959629280882));
#570=CARTESIAN_POINT('',(-10.5,-6.5,-0.999999999999994));
#571=CARTESIAN_POINT('',(-10.5,-4.,-1.));
#572=CARTESIAN_POINT('',(-10.5,-4.,-1.));
#573=CARTESIAN_POINT('',(-10.5,-4.,-1.));
#574=CARTESIAN_POINT('',(-10.5,-4.,0.));
#575=CARTESIAN_POINT('',(-10.5,-4.,0.));
#576=CARTESIAN_POINT('',(-10.5,4.,0.));
#577=CARTESIAN_POINT('',(-10.5,4.,-1.));
#578=CARTESIAN_POINT('',(-10.5,4.,-1.));
#579=CARTESIAN_POINT('',(-10.5,6.5,-1.));
#580=CARTESIAN_POINT('',(-3.25,0.,-7.5));
#581=CARTESIAN_POINT('',(-0.284253508810774,1.50000000000007,-7.49999999999996));
#582=CARTESIAN_POINT('',(-0.536980453068536,1.99968269877434,-7.11543403263118));
#583=CARTESIAN_POINT('',(-1.09772948030944,2.65642445317927,-6.5349538206857));
#584=CARTESIAN_POINT('',(-2.23005931171895,3.2148171180295,-5.97477356272775));
#585=CARTESIAN_POINT('',(-3.25032342902493,3.377767339107,-5.80168293301566));
#586=CARTESIAN_POINT('',(-4.26834468895753,3.21511352325137,-5.97446308058762));
#587=CARTESIAN_POINT('',(-5.40027231267511,2.65792417309446,-6.53346698803043));
#588=CARTESIAN_POINT('',(-5.9619477087774,2.00180189893686,-7.11380305308648));
#589=CARTESIAN_POINT('',(-6.215746491189,1.50000000000004,-7.5));
#590=CARTESIAN_POINT('',(-0.284253508810549,-1.50000000000013,-7.49999999999992));
#591=CARTESIAN_POINT('',(-0.536974324454827,-1.99967058149845,-7.11544335833313));
#592=CARTESIAN_POINT('',(-1.09839491432161,-2.65728611826961,-6.53418947923379));
#593=CARTESIAN_POINT('',(-2.23265140876955,-3.21583757376866,-5.97371104456583));
#594=CARTESIAN_POINT('',(-3.25472165022037,-3.37775055282814,-5.80170082192926));
#595=CARTESIAN_POINT('',(-4.27079630373021,-3.21414770747906,-5.97546716342168));
#596=CARTESIAN_POINT('',(-5.40126073355989,-2.65693559403894,-6.5343734039299));
#597=CARTESIAN_POINT('',(-5.96218334427724,-2.00133600883231,-7.11416161158605));
#598=CARTESIAN_POINT('',(-6.21574649118901,-1.50000000000001,-7.5));
#599=CARTESIAN_POINT('',(-3.25,0.,0.));
#600=CARTESIAN_POINT('',(0.0735000000000033,0.,0.));
#601=CARTESIAN_POINT('',(0.,0.,0.));
#602=CARTESIAN_POINT('',(-10.5,-4.,0.));
#603=CARTESIAN_POINT('',(10.5,4.,0.));
#604=CARTESIAN_POINT('',(10.5,4.,-1.));
#605=CARTESIAN_POINT('',(10.5,4.,-1.));
#606=CARTESIAN_POINT('',(0.,0.,-1.));
#607=CARTESIAN_POINT('',(10.5,6.5,-1.));
#608=CARTESIAN_POINT('',(-10.5,-4.,-1.));
#609=CARTESIAN_POINT('',(-10.5,-4.,-1.));
#610=CARTESIAN_POINT('',(0.,0.,-1.));
#611=CARTESIAN_POINT('',(-10.5,-6.5,-1.));
#612=CARTESIAN_POINT('',(-15.3118189982806,8.25847518065149,5.17959629280882));
#613=CARTESIAN_POINT('',(-15.3118189982806,-1.49999999999999,-7.5));
#614=CARTESIAN_POINT('',(-15.3118189982807,-8.25847518065142,5.17959629280882));
#615=CARTESIAN_POINT('',(-15.3118189982806,1.50000000000005,-7.5));
#616=CARTESIAN_POINT('',(5.50000000000001,0.,-7.5));
#617=CARTESIAN_POINT('',(5.50000000000001,0.,-7.5));
#618=CARTESIAN_POINT('',(5.50000000000001,0.,-7.5));
#619=CARTESIAN_POINT('',(5.50000000000001,0.,-7.5));
#620=CARTESIAN_POINT('',(5.50000000000001,0.,-6.5));
#621=MECHANICAL_DESIGN_GEOMETRIC_PRESENTATION_REPRESENTATION('',(#280,#281,
#282,#283,#284,#285,#286,#287,#288,#289,#290,#291,#292,#293,#294,#295),
#622);
#622=(
GEOMETRIC_REPRESENTATION_CONTEXT(3)
GLOBAL_UNCERTAINTY_ASSIGNED_CONTEXT((#623))
GLOBAL_UNIT_ASSIGNED_CONTEXT((#626,#625,#624))
REPRESENTATION_CONTEXT('Mountig_Bracket_M8','TOP_LEVEL_ASSEMBLY_PART')
);
#623=UNCERTAINTY_MEASURE_WITH_UNIT(LENGTH_MEASURE(0.005),#626,
'DISTANCE_ACCURACY_VALUE','Maximum Tolerance applied to model');
#624=(
NAMED_UNIT(*)
SI_UNIT($,.STERADIAN.)
SOLID_ANGLE_UNIT()
);
#625=(
NAMED_UNIT(*)
PLANE_ANGLE_UNIT()
SI_UNIT($,.RADIAN.)
);
#626=(
LENGTH_UNIT()
NAMED_UNIT(*)
SI_UNIT(.MILLI.,.METRE.)
);
#627=PRODUCT_DEFINITION_SHAPE('','',#628);
#628=PRODUCT_DEFINITION('','',#630,#629);
#629=PRODUCT_DEFINITION_CONTEXT('',#636,'design');
#630=PRODUCT_DEFINITION_FORMATION_WITH_SPECIFIED_SOURCE('','',#632,
 .NOT_KNOWN.);
#631=PRODUCT_RELATED_PRODUCT_CATEGORY('','',(#632));
#632=PRODUCT('Mountig_Bracket_M8','Mountig_Bracket_M8',
'Mountig_Bracket_M8',(#634));
#633=PRODUCT_CATEGORY('','');
#634=PRODUCT_CONTEXT('',#636,'mechanical');
#635=APPLICATION_PROTOCOL_DEFINITION('international standard',
'automotive_design',2010,#636);
#636=APPLICATION_CONTEXT(
'core data for automotive mechanical design processes');
ENDSEC;
END-ISO-10303-21;
