ISO-10303-21;
HEADER;
/* Generated by software containing ST-Developer
 * from STEP Tools, Inc. (www.steptools.com) 
 */
/* OPTION: strings as raw bytes, not using required /X/ escapes */

FILE_DESCRIPTION(
/* description */ ('Unknown'),
/* implementation_level */ '2;1');

FILE_NAME(
/* name */ 'Bolt_M8x16',
/* time_stamp */ '2023-03-05T10:07:30+01:00',
/* author */ ('Unknown'),
/* organization */ ('Unknown'),
/* preprocessor_version */ 'ST-DEVELOPER v18.1',
/* originating_system */ 'Solid Edge',
/* authorisation */ 'Unknown');

FILE_SCHEMA (('AUTOMOTIVE_DESIGN {1 0 10303 214 3 1 1}'));
ENDSEC;

DATA;
#10=PROPERTY_DEFINITION_REPRESENTATION(#14,#12);
#11=PROPERTY_DEFINITION_REPRESENTATION(#15,#13);
#12=REPRESENTATION('',(#16),#463);
#13=REPRESENTATION('',(#17),#463);
#14=PROPERTY_DEFINITION('pmi validation property','',#468);
#15=PROPERTY_DEFINITION('pmi validation property','',#468);
#16=VALUE_REPRESENTATION_ITEM('number of annotations',COUNT_MEASURE(0.));
#17=VALUE_REPRESENTATION_ITEM('number of views',COUNT_MEASURE(0.));
#18=SHAPE_REPRESENTATION_RELATIONSHIP('','',#323,#19);
#19=ADVANCED_BREP_SHAPE_REPRESENTATION('',(#321),#463);
#20=CONICAL_SURFACE('',#343,4.,0.785398163397448);
#21=CONICAL_SURFACE('',#344,6.,0.785398163397448);
#22=CIRCLE('',#331,6.5);
#23=CIRCLE('',#332,6.5);
#24=CIRCLE('',#335,6.);
#25=CIRCLE('',#338,4.);
#26=CIRCLE('',#340,4.);
#27=CIRCLE('',#342,2.5);
#28=CYLINDRICAL_SURFACE('',#330,6.5);
#29=CYLINDRICAL_SURFACE('',#339,4.);
#30=ORIENTED_EDGE('',*,*,#78,.T.);
#31=ORIENTED_EDGE('',*,*,#79,.F.);
#32=ORIENTED_EDGE('',*,*,#80,.F.);
#33=ORIENTED_EDGE('',*,*,#81,.T.);
#34=ORIENTED_EDGE('',*,*,#82,.T.);
#35=ORIENTED_EDGE('',*,*,#83,.F.);
#36=ORIENTED_EDGE('',*,*,#84,.F.);
#37=ORIENTED_EDGE('',*,*,#79,.T.);
#38=ORIENTED_EDGE('',*,*,#85,.T.);
#39=ORIENTED_EDGE('',*,*,#86,.F.);
#40=ORIENTED_EDGE('',*,*,#87,.F.);
#41=ORIENTED_EDGE('',*,*,#83,.T.);
#42=ORIENTED_EDGE('',*,*,#88,.T.);
#43=ORIENTED_EDGE('',*,*,#89,.F.);
#44=ORIENTED_EDGE('',*,*,#90,.F.);
#45=ORIENTED_EDGE('',*,*,#86,.T.);
#46=ORIENTED_EDGE('',*,*,#91,.T.);
#47=ORIENTED_EDGE('',*,*,#92,.F.);
#48=ORIENTED_EDGE('',*,*,#93,.F.);
#49=ORIENTED_EDGE('',*,*,#89,.T.);
#50=ORIENTED_EDGE('',*,*,#94,.T.);
#51=ORIENTED_EDGE('',*,*,#95,.T.);
#52=ORIENTED_EDGE('',*,*,#96,.T.);
#53=ORIENTED_EDGE('',*,*,#81,.F.);
#54=ORIENTED_EDGE('',*,*,#97,.F.);
#55=ORIENTED_EDGE('',*,*,#92,.T.);
#56=ORIENTED_EDGE('',*,*,#98,.T.);
#57=ORIENTED_EDGE('',*,*,#80,.T.);
#58=ORIENTED_EDGE('',*,*,#84,.T.);
#59=ORIENTED_EDGE('',*,*,#87,.T.);
#60=ORIENTED_EDGE('',*,*,#90,.T.);
#61=ORIENTED_EDGE('',*,*,#93,.T.);
#62=ORIENTED_EDGE('',*,*,#97,.T.);
#63=ORIENTED_EDGE('',*,*,#78,.F.);
#64=ORIENTED_EDGE('',*,*,#96,.F.);
#65=ORIENTED_EDGE('',*,*,#91,.F.);
#66=ORIENTED_EDGE('',*,*,#88,.F.);
#67=ORIENTED_EDGE('',*,*,#85,.F.);
#68=ORIENTED_EDGE('',*,*,#82,.F.);
#69=ORIENTED_EDGE('',*,*,#99,.T.);
#70=ORIENTED_EDGE('',*,*,#95,.F.);
#71=ORIENTED_EDGE('',*,*,#100,.T.);
#72=ORIENTED_EDGE('',*,*,#99,.F.);
#73=ORIENTED_EDGE('',*,*,#101,.T.);
#74=ORIENTED_EDGE('',*,*,#101,.F.);
#75=ORIENTED_EDGE('',*,*,#100,.F.);
#76=ORIENTED_EDGE('',*,*,#94,.F.);
#77=ORIENTED_EDGE('',*,*,#98,.F.);
#78=EDGE_CURVE('',#102,#103,#120,.T.);
#79=EDGE_CURVE('',#104,#103,#121,.T.);
#80=EDGE_CURVE('',#105,#104,#122,.T.);
#81=EDGE_CURVE('',#105,#102,#123,.T.);
#82=EDGE_CURVE('',#103,#106,#124,.T.);
#83=EDGE_CURVE('',#107,#106,#125,.T.);
#84=EDGE_CURVE('',#104,#107,#126,.T.);
#85=EDGE_CURVE('',#106,#108,#127,.T.);
#86=EDGE_CURVE('',#109,#108,#128,.T.);
#87=EDGE_CURVE('',#107,#109,#129,.T.);
#88=EDGE_CURVE('',#108,#110,#130,.T.);
#89=EDGE_CURVE('',#111,#110,#131,.T.);
#90=EDGE_CURVE('',#109,#111,#132,.T.);
#91=EDGE_CURVE('',#110,#112,#133,.T.);
#92=EDGE_CURVE('',#113,#112,#134,.T.);
#93=EDGE_CURVE('',#111,#113,#135,.T.);
#94=EDGE_CURVE('',#114,#114,#22,.F.);
#95=EDGE_CURVE('',#115,#115,#23,.T.);
#96=EDGE_CURVE('',#112,#102,#136,.T.);
#97=EDGE_CURVE('',#113,#105,#137,.T.);
#98=EDGE_CURVE('',#116,#116,#24,.T.);
#99=EDGE_CURVE('',#117,#117,#25,.T.);
#100=EDGE_CURVE('',#118,#118,#26,.T.);
#101=EDGE_CURVE('',#119,#119,#27,.F.);
#102=VERTEX_POINT('',#408);
#103=VERTEX_POINT('',#409);
#104=VERTEX_POINT('',#411);
#105=VERTEX_POINT('',#413);
#106=VERTEX_POINT('',#417);
#107=VERTEX_POINT('',#419);
#108=VERTEX_POINT('',#423);
#109=VERTEX_POINT('',#425);
#110=VERTEX_POINT('',#429);
#111=VERTEX_POINT('',#431);
#112=VERTEX_POINT('',#435);
#113=VERTEX_POINT('',#437);
#114=VERTEX_POINT('',#441);
#115=VERTEX_POINT('',#443);
#116=VERTEX_POINT('',#449);
#117=VERTEX_POINT('',#453);
#118=VERTEX_POINT('',#456);
#119=VERTEX_POINT('',#459);
#120=LINE('',#407,#138);
#121=LINE('',#410,#139);
#122=LINE('',#412,#140);
#123=LINE('',#414,#141);
#124=LINE('',#416,#142);
#125=LINE('',#418,#143);
#126=LINE('',#420,#144);
#127=LINE('',#422,#145);
#128=LINE('',#424,#146);
#129=LINE('',#426,#147);
#130=LINE('',#428,#148);
#131=LINE('',#430,#149);
#132=LINE('',#432,#150);
#133=LINE('',#434,#151);
#134=LINE('',#436,#152);
#135=LINE('',#438,#153);
#136=LINE('',#445,#154);
#137=LINE('',#446,#155);
#138=VECTOR('',#349,1000.);
#139=VECTOR('',#350,1000.);
#140=VECTOR('',#351,1000.);
#141=VECTOR('',#352,1000.);
#142=VECTOR('',#355,1000.);
#143=VECTOR('',#356,1000.);
#144=VECTOR('',#357,1000.);
#145=VECTOR('',#360,1000.);
#146=VECTOR('',#361,1000.);
#147=VECTOR('',#362,1000.);
#148=VECTOR('',#365,1000.);
#149=VECTOR('',#366,1000.);
#150=VECTOR('',#367,1000.);
#151=VECTOR('',#370,1000.);
#152=VECTOR('',#371,1000.);
#153=VECTOR('',#372,1000.);
#154=VECTOR('',#381,1000.);
#155=VECTOR('',#382,1000.);
#156=EDGE_LOOP('',(#30,#31,#32,#33));
#157=EDGE_LOOP('',(#34,#35,#36,#37));
#158=EDGE_LOOP('',(#38,#39,#40,#41));
#159=EDGE_LOOP('',(#42,#43,#44,#45));
#160=EDGE_LOOP('',(#46,#47,#48,#49));
#161=EDGE_LOOP('',(#50));
#162=EDGE_LOOP('',(#51));
#163=EDGE_LOOP('',(#52,#53,#54,#55));
#164=EDGE_LOOP('',(#56));
#165=EDGE_LOOP('',(#57,#58,#59,#60,#61,#62));
#166=EDGE_LOOP('',(#63,#64,#65,#66,#67,#68));
#167=EDGE_LOOP('',(#69));
#168=EDGE_LOOP('',(#70));
#169=EDGE_LOOP('',(#71));
#170=EDGE_LOOP('',(#72));
#171=EDGE_LOOP('',(#73));
#172=EDGE_LOOP('',(#74));
#173=EDGE_LOOP('',(#75));
#174=EDGE_LOOP('',(#76));
#175=EDGE_LOOP('',(#77));
#176=FACE_BOUND('',#156,.T.);
#177=FACE_BOUND('',#157,.T.);
#178=FACE_BOUND('',#158,.T.);
#179=FACE_BOUND('',#159,.T.);
#180=FACE_BOUND('',#160,.T.);
#181=FACE_BOUND('',#161,.T.);
#182=FACE_BOUND('',#162,.T.);
#183=FACE_BOUND('',#163,.T.);
#184=FACE_BOUND('',#164,.T.);
#185=FACE_BOUND('',#165,.T.);
#186=FACE_BOUND('',#166,.T.);
#187=FACE_BOUND('',#167,.T.);
#188=FACE_BOUND('',#168,.T.);
#189=FACE_BOUND('',#169,.T.);
#190=FACE_BOUND('',#170,.T.);
#191=FACE_BOUND('',#171,.T.);
#192=FACE_BOUND('',#172,.T.);
#193=FACE_BOUND('',#173,.T.);
#194=FACE_BOUND('',#174,.T.);
#195=FACE_BOUND('',#175,.T.);
#196=PLANE('',#325);
#197=PLANE('',#326);
#198=PLANE('',#327);
#199=PLANE('',#328);
#200=PLANE('',#329);
#201=PLANE('',#333);
#202=PLANE('',#334);
#203=PLANE('',#336);
#204=PLANE('',#337);
#205=PLANE('',#341);
#206=STYLED_ITEM('',(#220),#306);
#207=STYLED_ITEM('',(#221),#307);
#208=STYLED_ITEM('',(#222),#308);
#209=STYLED_ITEM('',(#223),#309);
#210=STYLED_ITEM('',(#224),#310);
#211=STYLED_ITEM('',(#225),#311);
#212=STYLED_ITEM('',(#226),#312);
#213=STYLED_ITEM('',(#227),#313);
#214=STYLED_ITEM('',(#228),#314);
#215=STYLED_ITEM('',(#229),#315);
#216=STYLED_ITEM('',(#230),#316);
#217=STYLED_ITEM('',(#231),#317);
#218=STYLED_ITEM('',(#232),#318);
#219=STYLED_ITEM('',(#233),#319);
#220=PRESENTATION_STYLE_ASSIGNMENT((#234));
#221=PRESENTATION_STYLE_ASSIGNMENT((#235));
#222=PRESENTATION_STYLE_ASSIGNMENT((#236));
#223=PRESENTATION_STYLE_ASSIGNMENT((#237));
#224=PRESENTATION_STYLE_ASSIGNMENT((#238));
#225=PRESENTATION_STYLE_ASSIGNMENT((#239));
#226=PRESENTATION_STYLE_ASSIGNMENT((#240));
#227=PRESENTATION_STYLE_ASSIGNMENT((#241));
#228=PRESENTATION_STYLE_ASSIGNMENT((#242));
#229=PRESENTATION_STYLE_ASSIGNMENT((#243));
#230=PRESENTATION_STYLE_ASSIGNMENT((#244));
#231=PRESENTATION_STYLE_ASSIGNMENT((#245));
#232=PRESENTATION_STYLE_ASSIGNMENT((#246));
#233=PRESENTATION_STYLE_ASSIGNMENT((#247));
#234=SURFACE_STYLE_USAGE(.BOTH.,#248);
#235=SURFACE_STYLE_USAGE(.BOTH.,#249);
#236=SURFACE_STYLE_USAGE(.BOTH.,#250);
#237=SURFACE_STYLE_USAGE(.BOTH.,#251);
#238=SURFACE_STYLE_USAGE(.BOTH.,#252);
#239=SURFACE_STYLE_USAGE(.BOTH.,#253);
#240=SURFACE_STYLE_USAGE(.BOTH.,#254);
#241=SURFACE_STYLE_USAGE(.BOTH.,#255);
#242=SURFACE_STYLE_USAGE(.BOTH.,#256);
#243=SURFACE_STYLE_USAGE(.BOTH.,#257);
#244=SURFACE_STYLE_USAGE(.BOTH.,#258);
#245=SURFACE_STYLE_USAGE(.BOTH.,#259);
#246=SURFACE_STYLE_USAGE(.BOTH.,#260);
#247=SURFACE_STYLE_USAGE(.BOTH.,#261);
#248=SURFACE_SIDE_STYLE('',(#262));
#249=SURFACE_SIDE_STYLE('',(#263));
#250=SURFACE_SIDE_STYLE('',(#264));
#251=SURFACE_SIDE_STYLE('',(#265));
#252=SURFACE_SIDE_STYLE('',(#266));
#253=SURFACE_SIDE_STYLE('',(#267));
#254=SURFACE_SIDE_STYLE('',(#268));
#255=SURFACE_SIDE_STYLE('',(#269));
#256=SURFACE_SIDE_STYLE('',(#270));
#257=SURFACE_SIDE_STYLE('',(#271));
#258=SURFACE_SIDE_STYLE('',(#272));
#259=SURFACE_SIDE_STYLE('',(#273));
#260=SURFACE_SIDE_STYLE('',(#274));
#261=SURFACE_SIDE_STYLE('',(#275));
#262=SURFACE_STYLE_FILL_AREA(#276);
#263=SURFACE_STYLE_FILL_AREA(#277);
#264=SURFACE_STYLE_FILL_AREA(#278);
#265=SURFACE_STYLE_FILL_AREA(#279);
#266=SURFACE_STYLE_FILL_AREA(#280);
#267=SURFACE_STYLE_FILL_AREA(#281);
#268=SURFACE_STYLE_FILL_AREA(#282);
#269=SURFACE_STYLE_FILL_AREA(#283);
#270=SURFACE_STYLE_FILL_AREA(#284);
#271=SURFACE_STYLE_FILL_AREA(#285);
#272=SURFACE_STYLE_FILL_AREA(#286);
#273=SURFACE_STYLE_FILL_AREA(#287);
#274=SURFACE_STYLE_FILL_AREA(#288);
#275=SURFACE_STYLE_FILL_AREA(#289);
#276=FILL_AREA_STYLE('',(#290));
#277=FILL_AREA_STYLE('',(#291));
#278=FILL_AREA_STYLE('',(#292));
#279=FILL_AREA_STYLE('',(#293));
#280=FILL_AREA_STYLE('',(#294));
#281=FILL_AREA_STYLE('',(#295));
#282=FILL_AREA_STYLE('',(#296));
#283=FILL_AREA_STYLE('',(#297));
#284=FILL_AREA_STYLE('',(#298));
#285=FILL_AREA_STYLE('',(#299));
#286=FILL_AREA_STYLE('',(#300));
#287=FILL_AREA_STYLE('',(#301));
#288=FILL_AREA_STYLE('',(#302));
#289=FILL_AREA_STYLE('',(#303));
#290=FILL_AREA_STYLE_COLOUR('',#304);
#291=FILL_AREA_STYLE_COLOUR('',#304);
#292=FILL_AREA_STYLE_COLOUR('',#304);
#293=FILL_AREA_STYLE_COLOUR('',#304);
#294=FILL_AREA_STYLE_COLOUR('',#304);
#295=FILL_AREA_STYLE_COLOUR('',#304);
#296=FILL_AREA_STYLE_COLOUR('',#304);
#297=FILL_AREA_STYLE_COLOUR('',#304);
#298=FILL_AREA_STYLE_COLOUR('',#304);
#299=FILL_AREA_STYLE_COLOUR('',#304);
#300=FILL_AREA_STYLE_COLOUR('',#305);
#301=FILL_AREA_STYLE_COLOUR('',#304);
#302=FILL_AREA_STYLE_COLOUR('',#304);
#303=FILL_AREA_STYLE_COLOUR('',#304);
#304=COLOUR_RGB('',0.800000011920929,0.,0.);
#305=COLOUR_RGB('',0.1875,0.75,0.581249892711639);
#306=ADVANCED_FACE('',(#176),#196,.F.);
#307=ADVANCED_FACE('',(#177),#197,.F.);
#308=ADVANCED_FACE('',(#178),#198,.F.);
#309=ADVANCED_FACE('',(#179),#199,.F.);
#310=ADVANCED_FACE('',(#180),#200,.F.);
#311=ADVANCED_FACE('',(#181,#182),#28,.T.);
#312=ADVANCED_FACE('',(#183),#201,.F.);
#313=ADVANCED_FACE('',(#184,#185),#202,.T.);
#314=ADVANCED_FACE('',(#186),#203,.T.);
#315=ADVANCED_FACE('',(#187,#188),#204,.F.);
#316=ADVANCED_FACE('',(#189,#190),#29,.T.);
#317=ADVANCED_FACE('',(#191),#205,.F.);
#318=ADVANCED_FACE('',(#192,#193),#20,.T.);
#319=ADVANCED_FACE('',(#194,#195),#21,.T.);
#320=CLOSED_SHELL('',(#306,#307,#308,#309,#310,#311,#312,#313,#314,#315,
#316,#317,#318,#319));
#321=MANIFOLD_SOLID_BREP('',#320);
#322=SHAPE_DEFINITION_REPRESENTATION(#468,#323);
#323=SHAPE_REPRESENTATION('Bolt_M8x16',(#324),#463);
#324=AXIS2_PLACEMENT_3D('',#405,#345,#346);
#325=AXIS2_PLACEMENT_3D('',#406,#347,#348);
#326=AXIS2_PLACEMENT_3D('',#415,#353,#354);
#327=AXIS2_PLACEMENT_3D('',#421,#358,#359);
#328=AXIS2_PLACEMENT_3D('',#427,#363,#364);
#329=AXIS2_PLACEMENT_3D('',#433,#368,#369);
#330=AXIS2_PLACEMENT_3D('',#439,#373,#374);
#331=AXIS2_PLACEMENT_3D('',#440,#375,#376);
#332=AXIS2_PLACEMENT_3D('',#442,#377,#378);
#333=AXIS2_PLACEMENT_3D('',#444,#379,#380);
#334=AXIS2_PLACEMENT_3D('',#447,#383,#384);
#335=AXIS2_PLACEMENT_3D('',#448,#385,#386);
#336=AXIS2_PLACEMENT_3D('',#450,#387,#388);
#337=AXIS2_PLACEMENT_3D('',#451,#389,#390);
#338=AXIS2_PLACEMENT_3D('',#452,#391,#392);
#339=AXIS2_PLACEMENT_3D('',#454,#393,#394);
#340=AXIS2_PLACEMENT_3D('',#455,#395,#396);
#341=AXIS2_PLACEMENT_3D('',#457,#397,#398);
#342=AXIS2_PLACEMENT_3D('',#458,#399,#400);
#343=AXIS2_PLACEMENT_3D('',#460,#401,#402);
#344=AXIS2_PLACEMENT_3D('',#461,#403,#404);
#345=DIRECTION('',(0.,0.,1.));
#346=DIRECTION('',(1.,0.,0.));
#347=DIRECTION('',(-1.62750748196526E-15,0.,1.));
#348=DIRECTION('',(1.,0.,1.62750748196526E-15));
#349=DIRECTION('',(-1.,0.,-1.62750748196526E-15));
#350=DIRECTION('',(0.,-1.,0.));
#351=DIRECTION('',(-1.,0.,-1.62750748196526E-15));
#352=DIRECTION('',(0.,-1.,0.));
#353=DIRECTION('',(-0.86602540378444,0.,0.499999999999998));
#354=DIRECTION('',(0.499999999999998,0.,0.86602540378444));
#355=DIRECTION('',(-0.499999999999998,0.,-0.86602540378444));
#356=DIRECTION('',(0.,-1.,0.));
#357=DIRECTION('',(-0.499999999999998,0.,-0.86602540378444));
#358=DIRECTION('',(-0.866025403784437,0.,-0.500000000000002));
#359=DIRECTION('',(-0.500000000000002,0.,0.866025403784437));
#360=DIRECTION('',(0.500000000000002,0.,-0.866025403784437));
#361=DIRECTION('',(0.,-1.,0.));
#362=DIRECTION('',(0.500000000000002,0.,-0.866025403784437));
#363=DIRECTION('',(3.25501496393051E-15,0.,-1.));
#364=DIRECTION('',(-1.,0.,-3.25501496393051E-15));
#365=DIRECTION('',(1.,0.,3.25501496393051E-15));
#366=DIRECTION('',(0.,-1.,0.));
#367=DIRECTION('',(1.,0.,3.25501496393051E-15));
#368=DIRECTION('',(0.86602540378444,0.,-0.499999999999998));
#369=DIRECTION('',(-0.499999999999998,0.,-0.86602540378444));
#370=DIRECTION('',(0.499999999999998,0.,0.86602540378444));
#371=DIRECTION('',(0.,-1.,0.));
#372=DIRECTION('',(0.499999999999998,0.,0.86602540378444));
#373=DIRECTION('',(0.,-1.,0.));
#374=DIRECTION('',(0.,0.,-1.));
#375=DIRECTION('',(0.,1.,0.));
#376=DIRECTION('',(0.,0.,1.));
#377=DIRECTION('',(0.,1.,0.));
#378=DIRECTION('',(1.,0.,0.));
#379=DIRECTION('',(0.866025403784438,0.,0.500000000000001));
#380=DIRECTION('',(0.500000000000001,0.,-0.866025403784438));
#381=DIRECTION('',(-0.500000000000001,0.,0.866025403784438));
#382=DIRECTION('',(-0.500000000000001,0.,0.866025403784438));
#383=DIRECTION('',(0.,1.,0.));
#384=DIRECTION('',(0.,0.,1.));
#385=DIRECTION('',(0.,1.,0.));
#386=DIRECTION('',(0.,0.,1.));
#387=DIRECTION('',(0.,1.,0.));
#388=DIRECTION('',(0.,0.,1.));
#389=DIRECTION('',(0.,1.,0.));
#390=DIRECTION('',(0.,0.,1.));
#391=DIRECTION('',(0.,1.,0.));
#392=DIRECTION('',(1.,0.,0.));
#393=DIRECTION('',(0.,1.,0.));
#394=DIRECTION('',(0.,0.,1.));
#395=DIRECTION('',(0.,1.,0.));
#396=DIRECTION('',(0.,0.,1.));
#397=DIRECTION('',(0.,1.,0.));
#398=DIRECTION('',(0.,0.,1.));
#399=DIRECTION('',(0.,1.,0.));
#400=DIRECTION('',(0.,0.,1.));
#401=DIRECTION('',(0.,1.,0.));
#402=DIRECTION('',(0.,0.,1.));
#403=DIRECTION('',(0.,-1.,0.));
#404=DIRECTION('',(0.,0.,-1.));
#405=CARTESIAN_POINT('',(0.,0.,0.));
#406=CARTESIAN_POINT('',(1.73205080756887,5.,3.));
#407=CARTESIAN_POINT('',(1.73205080756887,0.,3.));
#408=CARTESIAN_POINT('',(1.73205080756887,0.,3.));
#409=CARTESIAN_POINT('',(-1.73205080756888,0.,2.99999999999999));
#410=CARTESIAN_POINT('',(-1.73205080756888,5.,2.99999999999999));
#411=CARTESIAN_POINT('',(-1.73205080756888,5.,2.99999999999999));
#412=CARTESIAN_POINT('',(1.73205080756887,5.,3.));
#413=CARTESIAN_POINT('',(1.73205080756887,5.,3.));
#414=CARTESIAN_POINT('',(1.73205080756887,5.,3.));
#415=CARTESIAN_POINT('',(-1.73205080756888,5.,2.99999999999999));
#416=CARTESIAN_POINT('',(-1.73205080756888,0.,2.99999999999999));
#417=CARTESIAN_POINT('',(-3.46410161513775,0.,-9.97465998686664E-15));
#418=CARTESIAN_POINT('',(-3.46410161513775,5.,-9.97465998686664E-15));
#419=CARTESIAN_POINT('',(-3.46410161513775,5.,-9.97465998686664E-15));
#420=CARTESIAN_POINT('',(-1.73205080756888,5.,2.99999999999999));
#421=CARTESIAN_POINT('',(-3.46410161513775,5.,-9.97465998686664E-15));
#422=CARTESIAN_POINT('',(-3.46410161513775,0.,-9.97465998686664E-15));
#423=CARTESIAN_POINT('',(-1.73205080756886,0.,-3.00000000000001));
#424=CARTESIAN_POINT('',(-1.73205080756886,5.,-3.00000000000001));
#425=CARTESIAN_POINT('',(-1.73205080756886,5.,-3.00000000000001));
#426=CARTESIAN_POINT('',(-3.46410161513775,5.,-9.97465998686664E-15));
#427=CARTESIAN_POINT('',(-1.73205080756886,5.,-3.));
#428=CARTESIAN_POINT('',(-1.73205080756886,0.,-3.));
#429=CARTESIAN_POINT('',(1.73205080756889,0.,-2.99999999999999));
#430=CARTESIAN_POINT('',(1.73205080756889,5.,-2.99999999999999));
#431=CARTESIAN_POINT('',(1.73205080756889,5.,-2.99999999999999));
#432=CARTESIAN_POINT('',(-1.73205080756886,5.,-3.));
#433=CARTESIAN_POINT('',(1.73205080756889,5.,-2.99999999999999));
#434=CARTESIAN_POINT('',(1.73205080756889,0.,-2.99999999999999));
#435=CARTESIAN_POINT('',(3.46410161513775,0.,4.33680868994202E-16));
#436=CARTESIAN_POINT('',(3.46410161513775,5.,4.33680868994202E-16));
#437=CARTESIAN_POINT('',(3.46410161513775,5.,4.33680868994202E-16));
#438=CARTESIAN_POINT('',(1.73205080756889,5.,-2.99999999999999));
#439=CARTESIAN_POINT('',(0.,5.,0.));
#440=CARTESIAN_POINT('',(0.,4.5,0.));
#441=CARTESIAN_POINT('',(0.,4.5,6.5));
#442=CARTESIAN_POINT('',(0.,-3.,0.));
#443=CARTESIAN_POINT('',(6.5,-3.,0.));
#444=CARTESIAN_POINT('',(3.46410161513775,5.,4.33680868994202E-16));
#445=CARTESIAN_POINT('',(3.46410161513775,0.,4.33680868994202E-16));
#446=CARTESIAN_POINT('',(3.46410161513775,5.,4.33680868994202E-16));
#447=CARTESIAN_POINT('',(0.,5.,0.));
#448=CARTESIAN_POINT('',(0.,5.,0.));
#449=CARTESIAN_POINT('',(0.,5.,6.));
#450=CARTESIAN_POINT('',(0.,0.,0.));
#451=CARTESIAN_POINT('',(0.,-3.,0.));
#452=CARTESIAN_POINT('',(0.,-3.,0.));
#453=CARTESIAN_POINT('',(4.,-3.,0.));
#454=CARTESIAN_POINT('',(0.,-19.,0.));
#455=CARTESIAN_POINT('',(0.,-17.5,0.));
#456=CARTESIAN_POINT('',(0.,-17.5,4.));
#457=CARTESIAN_POINT('',(0.,-19.,0.));
#458=CARTESIAN_POINT('',(0.,-19.,0.));
#459=CARTESIAN_POINT('',(0.,-19.,2.5));
#460=CARTESIAN_POINT('',(0.,-17.5,0.));
#461=CARTESIAN_POINT('',(0.,5.,0.));
#462=MECHANICAL_DESIGN_GEOMETRIC_PRESENTATION_REPRESENTATION('',(#206,#207,
#208,#209,#210,#211,#212,#213,#214,#215,#216,#217,#218,#219),#463);
#463=(
GEOMETRIC_REPRESENTATION_CONTEXT(3)
GLOBAL_UNCERTAINTY_ASSIGNED_CONTEXT((#464))
GLOBAL_UNIT_ASSIGNED_CONTEXT((#467,#466,#465))
REPRESENTATION_CONTEXT('Bolt_M8x16','TOP_LEVEL_ASSEMBLY_PART')
);
#464=UNCERTAINTY_MEASURE_WITH_UNIT(LENGTH_MEASURE(0.005),#467,
'DISTANCE_ACCURACY_VALUE','Maximum Tolerance applied to model');
#465=(
NAMED_UNIT(*)
SI_UNIT($,.STERADIAN.)
SOLID_ANGLE_UNIT()
);
#466=(
NAMED_UNIT(*)
PLANE_ANGLE_UNIT()
SI_UNIT($,.RADIAN.)
);
#467=(
LENGTH_UNIT()
NAMED_UNIT(*)
SI_UNIT(.MILLI.,.METRE.)
);
#468=PRODUCT_DEFINITION_SHAPE('','',#469);
#469=PRODUCT_DEFINITION('','',#471,#470);
#470=PRODUCT_DEFINITION_CONTEXT('',#477,'design');
#471=PRODUCT_DEFINITION_FORMATION_WITH_SPECIFIED_SOURCE('','',#473,
 .NOT_KNOWN.);
#472=PRODUCT_RELATED_PRODUCT_CATEGORY('','',(#473));
#473=PRODUCT('Bolt_M8x16','Bolt_M8x16','Bolt_M8x16',(#475));
#474=PRODUCT_CATEGORY('','');
#475=PRODUCT_CONTEXT('',#477,'mechanical');
#476=APPLICATION_PROTOCOL_DEFINITION('international standard',
'automotive_design',2010,#477);
#477=APPLICATION_CONTEXT(
'core data for automotive mechanical design processes');
ENDSEC;
END-ISO-10303-21;
