ISO-10303-21;
HEADER;
/* Generated by software containing ST-Developer
 * from STEP Tools, Inc. (www.steptools.com) 
 */
/* OPTION: strings as raw bytes, not using required /X/ escapes */

FILE_DESCRIPTION(
/* description */ ('Unknown'),
/* implementation_level */ '2;1');

FILE_NAME(
/* name */ 'Bottom_Cover',
/* time_stamp */ '2023-03-05T10:06:57+01:00',
/* author */ ('Unknown'),
/* organization */ ('Unknown'),
/* preprocessor_version */ 'ST-DEVELOPER v18.1',
/* originating_system */ 'Solid Edge',
/* authorisation */ 'Unknown');

FILE_SCHEMA (('AUTOMOTIVE_DESIGN {1 0 10303 214 3 1 1}'));
ENDSEC;

DATA;
#10=PROPERTY_DEFINITION_REPRESENTATION(#14,#12);
#11=PROPERTY_DEFINITION_REPRESENTATION(#15,#13);
#12=REPRESENTATION('',(#16),#525);
#13=REPRESENTATION('',(#17),#525);
#14=PROPERTY_DEFINITION('pmi validation property','',#530);
#15=PROPERTY_DEFINITION('pmi validation property','',#530);
#16=VALUE_REPRESENTATION_ITEM('number of annotations',COUNT_MEASURE(0.));
#17=VALUE_REPRESENTATION_ITEM('number of views',COUNT_MEASURE(0.));
#18=SHAPE_REPRESENTATION_RELATIONSHIP('','',#327,#19);
#19=ADVANCED_BREP_SHAPE_REPRESENTATION('',(#325),#525);
#20=CIRCLE('',#335,150.);
#21=CIRCLE('',#336,150.);
#22=CIRCLE('',#339,1.75);
#23=CIRCLE('',#340,1.75);
#24=CIRCLE('',#342,1.75);
#25=CIRCLE('',#343,1.75);
#26=CIRCLE('',#345,1.75);
#27=CIRCLE('',#346,1.75);
#28=CIRCLE('',#348,1.75);
#29=CIRCLE('',#349,1.75);
#30=CIRCLE('',#351,1.75);
#31=CIRCLE('',#352,1.75);
#32=CIRCLE('',#354,1.75);
#33=CIRCLE('',#355,1.75);
#34=CYLINDRICAL_SURFACE('',#334,150.);
#35=CYLINDRICAL_SURFACE('',#338,1.75);
#36=CYLINDRICAL_SURFACE('',#341,1.75);
#37=CYLINDRICAL_SURFACE('',#344,1.75);
#38=CYLINDRICAL_SURFACE('',#347,1.75);
#39=CYLINDRICAL_SURFACE('',#350,1.75);
#40=CYLINDRICAL_SURFACE('',#353,1.75);
#41=ORIENTED_EDGE('',*,*,#113,.T.);
#42=ORIENTED_EDGE('',*,*,#114,.F.);
#43=ORIENTED_EDGE('',*,*,#115,.F.);
#44=ORIENTED_EDGE('',*,*,#116,.T.);
#45=ORIENTED_EDGE('',*,*,#117,.T.);
#46=ORIENTED_EDGE('',*,*,#118,.F.);
#47=ORIENTED_EDGE('',*,*,#119,.F.);
#48=ORIENTED_EDGE('',*,*,#114,.T.);
#49=ORIENTED_EDGE('',*,*,#120,.T.);
#50=ORIENTED_EDGE('',*,*,#121,.F.);
#51=ORIENTED_EDGE('',*,*,#122,.F.);
#52=ORIENTED_EDGE('',*,*,#118,.T.);
#53=ORIENTED_EDGE('',*,*,#123,.T.);
#54=ORIENTED_EDGE('',*,*,#124,.F.);
#55=ORIENTED_EDGE('',*,*,#125,.F.);
#56=ORIENTED_EDGE('',*,*,#121,.T.);
#57=ORIENTED_EDGE('',*,*,#126,.T.);
#58=ORIENTED_EDGE('',*,*,#127,.F.);
#59=ORIENTED_EDGE('',*,*,#128,.F.);
#60=ORIENTED_EDGE('',*,*,#124,.T.);
#61=ORIENTED_EDGE('',*,*,#129,.T.);
#62=ORIENTED_EDGE('',*,*,#130,.F.);
#63=ORIENTED_EDGE('',*,*,#131,.F.);
#64=ORIENTED_EDGE('',*,*,#127,.T.);
#65=ORIENTED_EDGE('',*,*,#132,.T.);
#66=ORIENTED_EDGE('',*,*,#133,.F.);
#67=ORIENTED_EDGE('',*,*,#134,.F.);
#68=ORIENTED_EDGE('',*,*,#130,.T.);
#69=ORIENTED_EDGE('',*,*,#135,.T.);
#70=ORIENTED_EDGE('',*,*,#136,.F.);
#71=ORIENTED_EDGE('',*,*,#137,.T.);
#72=ORIENTED_EDGE('',*,*,#138,.F.);
#73=ORIENTED_EDGE('',*,*,#139,.F.);
#74=ORIENTED_EDGE('',*,*,#140,.T.);
#75=ORIENTED_EDGE('',*,*,#141,.T.);
#76=ORIENTED_EDGE('',*,*,#142,.F.);
#77=ORIENTED_EDGE('',*,*,#143,.F.);
#78=ORIENTED_EDGE('',*,*,#144,.T.);
#79=ORIENTED_EDGE('',*,*,#145,.F.);
#80=ORIENTED_EDGE('',*,*,#146,.T.);
#81=ORIENTED_EDGE('',*,*,#147,.T.);
#82=ORIENTED_EDGE('',*,*,#116,.F.);
#83=ORIENTED_EDGE('',*,*,#148,.F.);
#84=ORIENTED_EDGE('',*,*,#133,.T.);
#85=ORIENTED_EDGE('',*,*,#145,.T.);
#86=ORIENTED_EDGE('',*,*,#143,.T.);
#87=ORIENTED_EDGE('',*,*,#141,.F.);
#88=ORIENTED_EDGE('',*,*,#139,.T.);
#89=ORIENTED_EDGE('',*,*,#137,.F.);
#90=ORIENTED_EDGE('',*,*,#135,.F.);
#91=ORIENTED_EDGE('',*,*,#115,.T.);
#92=ORIENTED_EDGE('',*,*,#119,.T.);
#93=ORIENTED_EDGE('',*,*,#122,.T.);
#94=ORIENTED_EDGE('',*,*,#125,.T.);
#95=ORIENTED_EDGE('',*,*,#128,.T.);
#96=ORIENTED_EDGE('',*,*,#131,.T.);
#97=ORIENTED_EDGE('',*,*,#134,.T.);
#98=ORIENTED_EDGE('',*,*,#148,.T.);
#99=ORIENTED_EDGE('',*,*,#146,.F.);
#100=ORIENTED_EDGE('',*,*,#144,.F.);
#101=ORIENTED_EDGE('',*,*,#142,.T.);
#102=ORIENTED_EDGE('',*,*,#140,.F.);
#103=ORIENTED_EDGE('',*,*,#138,.T.);
#104=ORIENTED_EDGE('',*,*,#136,.T.);
#105=ORIENTED_EDGE('',*,*,#113,.F.);
#106=ORIENTED_EDGE('',*,*,#147,.F.);
#107=ORIENTED_EDGE('',*,*,#132,.F.);
#108=ORIENTED_EDGE('',*,*,#129,.F.);
#109=ORIENTED_EDGE('',*,*,#126,.F.);
#110=ORIENTED_EDGE('',*,*,#123,.F.);
#111=ORIENTED_EDGE('',*,*,#120,.F.);
#112=ORIENTED_EDGE('',*,*,#117,.F.);
#113=EDGE_CURVE('',#149,#150,#177,.T.);
#114=EDGE_CURVE('',#151,#150,#178,.T.);
#115=EDGE_CURVE('',#152,#151,#179,.T.);
#116=EDGE_CURVE('',#152,#149,#180,.T.);
#117=EDGE_CURVE('',#150,#153,#181,.T.);
#118=EDGE_CURVE('',#154,#153,#182,.T.);
#119=EDGE_CURVE('',#151,#154,#183,.T.);
#120=EDGE_CURVE('',#153,#155,#184,.T.);
#121=EDGE_CURVE('',#156,#155,#185,.T.);
#122=EDGE_CURVE('',#154,#156,#186,.T.);
#123=EDGE_CURVE('',#155,#157,#187,.T.);
#124=EDGE_CURVE('',#158,#157,#188,.T.);
#125=EDGE_CURVE('',#156,#158,#189,.T.);
#126=EDGE_CURVE('',#157,#159,#190,.T.);
#127=EDGE_CURVE('',#160,#159,#191,.T.);
#128=EDGE_CURVE('',#158,#160,#192,.T.);
#129=EDGE_CURVE('',#159,#161,#20,.T.);
#130=EDGE_CURVE('',#162,#161,#193,.T.);
#131=EDGE_CURVE('',#160,#162,#21,.T.);
#132=EDGE_CURVE('',#161,#163,#194,.T.);
#133=EDGE_CURVE('',#164,#163,#195,.T.);
#134=EDGE_CURVE('',#162,#164,#196,.T.);
#135=EDGE_CURVE('',#165,#165,#22,.T.);
#136=EDGE_CURVE('',#166,#166,#23,.T.);
#137=EDGE_CURVE('',#167,#167,#24,.T.);
#138=EDGE_CURVE('',#168,#168,#25,.T.);
#139=EDGE_CURVE('',#169,#169,#26,.T.);
#140=EDGE_CURVE('',#170,#170,#27,.T.);
#141=EDGE_CURVE('',#171,#171,#28,.T.);
#142=EDGE_CURVE('',#172,#172,#29,.T.);
#143=EDGE_CURVE('',#173,#173,#30,.T.);
#144=EDGE_CURVE('',#174,#174,#31,.T.);
#145=EDGE_CURVE('',#175,#175,#32,.T.);
#146=EDGE_CURVE('',#176,#176,#33,.T.);
#147=EDGE_CURVE('',#163,#149,#197,.T.);
#148=EDGE_CURVE('',#164,#152,#198,.T.);
#149=VERTEX_POINT('',#446);
#150=VERTEX_POINT('',#447);
#151=VERTEX_POINT('',#449);
#152=VERTEX_POINT('',#451);
#153=VERTEX_POINT('',#455);
#154=VERTEX_POINT('',#457);
#155=VERTEX_POINT('',#461);
#156=VERTEX_POINT('',#463);
#157=VERTEX_POINT('',#467);
#158=VERTEX_POINT('',#469);
#159=VERTEX_POINT('',#473);
#160=VERTEX_POINT('',#475);
#161=VERTEX_POINT('',#479);
#162=VERTEX_POINT('',#481);
#163=VERTEX_POINT('',#485);
#164=VERTEX_POINT('',#487);
#165=VERTEX_POINT('',#491);
#166=VERTEX_POINT('',#493);
#167=VERTEX_POINT('',#496);
#168=VERTEX_POINT('',#498);
#169=VERTEX_POINT('',#501);
#170=VERTEX_POINT('',#503);
#171=VERTEX_POINT('',#506);
#172=VERTEX_POINT('',#508);
#173=VERTEX_POINT('',#511);
#174=VERTEX_POINT('',#513);
#175=VERTEX_POINT('',#516);
#176=VERTEX_POINT('',#518);
#177=LINE('',#445,#199);
#178=LINE('',#448,#200);
#179=LINE('',#450,#201);
#180=LINE('',#452,#202);
#181=LINE('',#454,#203);
#182=LINE('',#456,#204);
#183=LINE('',#458,#205);
#184=LINE('',#460,#206);
#185=LINE('',#462,#207);
#186=LINE('',#464,#208);
#187=LINE('',#466,#209);
#188=LINE('',#468,#210);
#189=LINE('',#470,#211);
#190=LINE('',#472,#212);
#191=LINE('',#474,#213);
#192=LINE('',#476,#214);
#193=LINE('',#480,#215);
#194=LINE('',#484,#216);
#195=LINE('',#486,#217);
#196=LINE('',#488,#218);
#197=LINE('',#520,#219);
#198=LINE('',#521,#220);
#199=VECTOR('',#363,1000.);
#200=VECTOR('',#364,1000.);
#201=VECTOR('',#365,1000.);
#202=VECTOR('',#366,1000.);
#203=VECTOR('',#369,1000.);
#204=VECTOR('',#370,1000.);
#205=VECTOR('',#371,1000.);
#206=VECTOR('',#374,1000.);
#207=VECTOR('',#375,1000.);
#208=VECTOR('',#376,1000.);
#209=VECTOR('',#379,1000.);
#210=VECTOR('',#380,1000.);
#211=VECTOR('',#381,1000.);
#212=VECTOR('',#384,1000.);
#213=VECTOR('',#385,1000.);
#214=VECTOR('',#386,1000.);
#215=VECTOR('',#391,1000.);
#216=VECTOR('',#396,1000.);
#217=VECTOR('',#397,1000.);
#218=VECTOR('',#398,1000.);
#219=VECTOR('',#437,1000.);
#220=VECTOR('',#438,1000.);
#221=EDGE_LOOP('',(#41,#42,#43,#44));
#222=EDGE_LOOP('',(#45,#46,#47,#48));
#223=EDGE_LOOP('',(#49,#50,#51,#52));
#224=EDGE_LOOP('',(#53,#54,#55,#56));
#225=EDGE_LOOP('',(#57,#58,#59,#60));
#226=EDGE_LOOP('',(#61,#62,#63,#64));
#227=EDGE_LOOP('',(#65,#66,#67,#68));
#228=EDGE_LOOP('',(#69));
#229=EDGE_LOOP('',(#70));
#230=EDGE_LOOP('',(#71));
#231=EDGE_LOOP('',(#72));
#232=EDGE_LOOP('',(#73));
#233=EDGE_LOOP('',(#74));
#234=EDGE_LOOP('',(#75));
#235=EDGE_LOOP('',(#76));
#236=EDGE_LOOP('',(#77));
#237=EDGE_LOOP('',(#78));
#238=EDGE_LOOP('',(#79));
#239=EDGE_LOOP('',(#80));
#240=EDGE_LOOP('',(#81,#82,#83,#84));
#241=EDGE_LOOP('',(#85));
#242=EDGE_LOOP('',(#86));
#243=EDGE_LOOP('',(#87));
#244=EDGE_LOOP('',(#88));
#245=EDGE_LOOP('',(#89));
#246=EDGE_LOOP('',(#90));
#247=EDGE_LOOP('',(#91,#92,#93,#94,#95,#96,#97,#98));
#248=EDGE_LOOP('',(#99));
#249=EDGE_LOOP('',(#100));
#250=EDGE_LOOP('',(#101));
#251=EDGE_LOOP('',(#102));
#252=EDGE_LOOP('',(#103));
#253=EDGE_LOOP('',(#104));
#254=EDGE_LOOP('',(#105,#106,#107,#108,#109,#110,#111,#112));
#255=FACE_BOUND('',#221,.T.);
#256=FACE_BOUND('',#222,.T.);
#257=FACE_BOUND('',#223,.T.);
#258=FACE_BOUND('',#224,.T.);
#259=FACE_BOUND('',#225,.T.);
#260=FACE_BOUND('',#226,.T.);
#261=FACE_BOUND('',#227,.T.);
#262=FACE_BOUND('',#228,.T.);
#263=FACE_BOUND('',#229,.T.);
#264=FACE_BOUND('',#230,.T.);
#265=FACE_BOUND('',#231,.T.);
#266=FACE_BOUND('',#232,.T.);
#267=FACE_BOUND('',#233,.T.);
#268=FACE_BOUND('',#234,.T.);
#269=FACE_BOUND('',#235,.T.);
#270=FACE_BOUND('',#236,.T.);
#271=FACE_BOUND('',#237,.T.);
#272=FACE_BOUND('',#238,.T.);
#273=FACE_BOUND('',#239,.T.);
#274=FACE_BOUND('',#240,.T.);
#275=FACE_BOUND('',#241,.T.);
#276=FACE_BOUND('',#242,.T.);
#277=FACE_BOUND('',#243,.T.);
#278=FACE_BOUND('',#244,.T.);
#279=FACE_BOUND('',#245,.T.);
#280=FACE_BOUND('',#246,.T.);
#281=FACE_BOUND('',#247,.T.);
#282=FACE_BOUND('',#248,.T.);
#283=FACE_BOUND('',#249,.T.);
#284=FACE_BOUND('',#250,.T.);
#285=FACE_BOUND('',#251,.T.);
#286=FACE_BOUND('',#252,.T.);
#287=FACE_BOUND('',#253,.T.);
#288=FACE_BOUND('',#254,.T.);
#289=PLANE('',#329);
#290=PLANE('',#330);
#291=PLANE('',#331);
#292=PLANE('',#332);
#293=PLANE('',#333);
#294=PLANE('',#337);
#295=PLANE('',#356);
#296=PLANE('',#357);
#297=PLANE('',#358);
#298=ADVANCED_FACE('',(#255),#289,.F.);
#299=ADVANCED_FACE('',(#256),#290,.F.);
#300=ADVANCED_FACE('',(#257),#291,.F.);
#301=ADVANCED_FACE('',(#258),#292,.F.);
#302=ADVANCED_FACE('',(#259),#293,.F.);
#303=ADVANCED_FACE('',(#260),#34,.F.);
#304=ADVANCED_FACE('',(#261),#294,.F.);
#305=ADVANCED_FACE('',(#262,#263),#35,.F.);
#306=ADVANCED_FACE('',(#264,#265),#36,.F.);
#307=ADVANCED_FACE('',(#266,#267),#37,.F.);
#308=ADVANCED_FACE('',(#268,#269),#38,.F.);
#309=ADVANCED_FACE('',(#270,#271),#39,.F.);
#310=ADVANCED_FACE('',(#272,#273),#40,.F.);
#311=ADVANCED_FACE('',(#274),#295,.F.);
#312=ADVANCED_FACE('',(#275,#276,#277,#278,#279,#280,#281),#296,.F.);
#313=ADVANCED_FACE('',(#282,#283,#284,#285,#286,#287,#288),#297,.T.);
#314=CLOSED_SHELL('',(#298,#299,#300,#301,#302,#303,#304,#305,#306,#307,
#308,#309,#310,#311,#312,#313));
#315=STYLED_ITEM('',(#316),#325);
#316=PRESENTATION_STYLE_ASSIGNMENT((#317));
#317=SURFACE_STYLE_USAGE(.BOTH.,#318);
#318=SURFACE_SIDE_STYLE('',(#321,#319));
#319=SURFACE_STYLE_RENDERING_WITH_PROPERTIES(.CONSTANT_SHADING.,#324,(#320));
#320=SURFACE_STYLE_TRANSPARENT(0.699999988079071);
#321=SURFACE_STYLE_FILL_AREA(#322);
#322=FILL_AREA_STYLE('',(#323));
#323=FILL_AREA_STYLE_COLOUR('',#324);
#324=COLOUR_RGB('',0.105882354080677,0.69803923368454,0.105882354080677);
#325=MANIFOLD_SOLID_BREP('',#314);
#326=SHAPE_DEFINITION_REPRESENTATION(#530,#327);
#327=SHAPE_REPRESENTATION('Bottom_Cover',(#328),#525);
#328=AXIS2_PLACEMENT_3D('',#443,#359,#360);
#329=AXIS2_PLACEMENT_3D('',#444,#361,#362);
#330=AXIS2_PLACEMENT_3D('',#453,#367,#368);
#331=AXIS2_PLACEMENT_3D('',#459,#372,#373);
#332=AXIS2_PLACEMENT_3D('',#465,#377,#378);
#333=AXIS2_PLACEMENT_3D('',#471,#382,#383);
#334=AXIS2_PLACEMENT_3D('',#477,#387,#388);
#335=AXIS2_PLACEMENT_3D('',#478,#389,#390);
#336=AXIS2_PLACEMENT_3D('',#482,#392,#393);
#337=AXIS2_PLACEMENT_3D('',#483,#394,#395);
#338=AXIS2_PLACEMENT_3D('',#489,#399,#400);
#339=AXIS2_PLACEMENT_3D('',#490,#401,#402);
#340=AXIS2_PLACEMENT_3D('',#492,#403,#404);
#341=AXIS2_PLACEMENT_3D('',#494,#405,#406);
#342=AXIS2_PLACEMENT_3D('',#495,#407,#408);
#343=AXIS2_PLACEMENT_3D('',#497,#409,#410);
#344=AXIS2_PLACEMENT_3D('',#499,#411,#412);
#345=AXIS2_PLACEMENT_3D('',#500,#413,#414);
#346=AXIS2_PLACEMENT_3D('',#502,#415,#416);
#347=AXIS2_PLACEMENT_3D('',#504,#417,#418);
#348=AXIS2_PLACEMENT_3D('',#505,#419,#420);
#349=AXIS2_PLACEMENT_3D('',#507,#421,#422);
#350=AXIS2_PLACEMENT_3D('',#509,#423,#424);
#351=AXIS2_PLACEMENT_3D('',#510,#425,#426);
#352=AXIS2_PLACEMENT_3D('',#512,#427,#428);
#353=AXIS2_PLACEMENT_3D('',#514,#429,#430);
#354=AXIS2_PLACEMENT_3D('',#515,#431,#432);
#355=AXIS2_PLACEMENT_3D('',#517,#433,#434);
#356=AXIS2_PLACEMENT_3D('',#519,#435,#436);
#357=AXIS2_PLACEMENT_3D('',#522,#439,#440);
#358=AXIS2_PLACEMENT_3D('',#523,#441,#442);
#359=DIRECTION('',(0.,0.,1.));
#360=DIRECTION('',(1.,0.,0.));
#361=DIRECTION('',(0.707106781186548,-0.707106781186547,0.));
#362=DIRECTION('',(0.707106781186547,0.707106781186548,0.));
#363=DIRECTION('',(-0.707106781186547,-0.707106781186548,0.));
#364=DIRECTION('',(0.,0.,-1.));
#365=DIRECTION('',(-0.707106781186547,-0.707106781186548,0.));
#366=DIRECTION('',(0.,0.,-1.));
#367=DIRECTION('',(1.,0.,0.));
#368=DIRECTION('',(0.,0.,-1.));
#369=DIRECTION('',(0.,-1.,0.));
#370=DIRECTION('',(0.,0.,-1.));
#371=DIRECTION('',(0.,-1.,0.));
#372=DIRECTION('',(0.707106781186547,0.707106781186548,0.));
#373=DIRECTION('',(-0.707106781186548,0.707106781186547,0.));
#374=DIRECTION('',(0.707106781186548,-0.707106781186547,0.));
#375=DIRECTION('',(0.,0.,-1.));
#376=DIRECTION('',(0.707106781186548,-0.707106781186547,0.));
#377=DIRECTION('',(0.,1.,0.));
#378=DIRECTION('',(0.,0.,1.));
#379=DIRECTION('',(1.,0.,0.));
#380=DIRECTION('',(0.,0.,-1.));
#381=DIRECTION('',(1.,0.,0.));
#382=DIRECTION('',(-1.,0.,0.));
#383=DIRECTION('',(0.,0.,1.));
#384=DIRECTION('',(0.,1.,0.));
#385=DIRECTION('',(0.,0.,-1.));
#386=DIRECTION('',(0.,1.,0.));
#387=DIRECTION('',(0.,0.,-1.));
#388=DIRECTION('',(-1.,0.,0.));
#389=DIRECTION('',(0.,0.,-1.));
#390=DIRECTION('',(1.,0.,0.));
#391=DIRECTION('',(0.,0.,-1.));
#392=DIRECTION('',(0.,0.,-1.));
#393=DIRECTION('',(1.,0.,0.));
#394=DIRECTION('',(-1.,0.,0.));
#395=DIRECTION('',(0.,0.,1.));
#396=DIRECTION('',(0.,1.,0.));
#397=DIRECTION('',(0.,0.,-1.));
#398=DIRECTION('',(0.,1.,0.));
#399=DIRECTION('',(0.,0.,-1.));
#400=DIRECTION('',(-1.,0.,0.));
#401=DIRECTION('',(0.,0.,1.));
#402=DIRECTION('',(1.,0.,0.));
#403=DIRECTION('',(0.,0.,1.));
#404=DIRECTION('',(1.,0.,0.));
#405=DIRECTION('',(0.,0.,-1.));
#406=DIRECTION('',(-1.,0.,0.));
#407=DIRECTION('',(0.,0.,1.));
#408=DIRECTION('',(1.,0.,0.));
#409=DIRECTION('',(0.,0.,1.));
#410=DIRECTION('',(1.,0.,0.));
#411=DIRECTION('',(0.,0.,-1.));
#412=DIRECTION('',(-1.,0.,0.));
#413=DIRECTION('',(0.,0.,-1.));
#414=DIRECTION('',(1.,0.,0.));
#415=DIRECTION('',(0.,0.,-1.));
#416=DIRECTION('',(1.,0.,0.));
#417=DIRECTION('',(0.,0.,-1.));
#418=DIRECTION('',(-1.,0.,0.));
#419=DIRECTION('',(0.,0.,1.));
#420=DIRECTION('',(1.,0.,0.));
#421=DIRECTION('',(0.,0.,1.));
#422=DIRECTION('',(1.,0.,0.));
#423=DIRECTION('',(0.,0.,-1.));
#424=DIRECTION('',(-1.,0.,0.));
#425=DIRECTION('',(0.,0.,-1.));
#426=DIRECTION('',(1.,0.,0.));
#427=DIRECTION('',(0.,0.,-1.));
#428=DIRECTION('',(1.,0.,0.));
#429=DIRECTION('',(0.,0.,-1.));
#430=DIRECTION('',(-1.,0.,0.));
#431=DIRECTION('',(0.,0.,-1.));
#432=DIRECTION('',(1.,0.,0.));
#433=DIRECTION('',(0.,0.,-1.));
#434=DIRECTION('',(1.,0.,0.));
#435=DIRECTION('',(0.,-1.,0.));
#436=DIRECTION('',(0.,0.,-1.));
#437=DIRECTION('',(-1.,0.,0.));
#438=DIRECTION('',(-1.,0.,0.));
#439=DIRECTION('',(0.,0.,-1.));
#440=DIRECTION('',(-1.,0.,0.));
#441=DIRECTION('',(0.,0.,-1.));
#442=DIRECTION('',(-1.,0.,0.));
#443=CARTESIAN_POINT('',(0.,0.,0.));
#444=CARTESIAN_POINT('',(-180.,95.,4.));
#445=CARTESIAN_POINT('',(22.4999999999996,297.5,0.));
#446=CARTESIAN_POINT('',(-180.,95.,0.));
#447=CARTESIAN_POINT('',(-190.,85.,0.));
#448=CARTESIAN_POINT('',(-190.,85.,4.));
#449=CARTESIAN_POINT('',(-190.,85.,4.));
#450=CARTESIAN_POINT('',(22.4999999999996,297.5,4.));
#451=CARTESIAN_POINT('',(-180.,95.,4.));
#452=CARTESIAN_POINT('',(-180.,95.,4.));
#453=CARTESIAN_POINT('',(-190.,80.,4.));
#454=CARTESIAN_POINT('',(-190.,80.,0.));
#455=CARTESIAN_POINT('',(-190.,-85.,0.));
#456=CARTESIAN_POINT('',(-190.,-85.,4.));
#457=CARTESIAN_POINT('',(-190.,-85.,4.));
#458=CARTESIAN_POINT('',(-190.,80.,4.));
#459=CARTESIAN_POINT('',(-180.,-95.,4.));
#460=CARTESIAN_POINT('',(22.5000000000004,-297.5,0.));
#461=CARTESIAN_POINT('',(-180.,-95.,0.));
#462=CARTESIAN_POINT('',(-180.,-95.,4.));
#463=CARTESIAN_POINT('',(-180.,-95.,4.));
#464=CARTESIAN_POINT('',(22.5000000000004,-297.5,4.));
#465=CARTESIAN_POINT('',(-180.,-95.,4.));
#466=CARTESIAN_POINT('',(-180.,-95.,0.));
#467=CARTESIAN_POINT('',(190.,-95.,0.));
#468=CARTESIAN_POINT('',(190.,-95.,4.));
#469=CARTESIAN_POINT('',(190.,-95.,4.));
#470=CARTESIAN_POINT('',(-180.,-95.,4.));
#471=CARTESIAN_POINT('',(190.,-90.,4.));
#472=CARTESIAN_POINT('',(190.,-90.,0.));
#473=CARTESIAN_POINT('',(190.,-74.833147735479,0.));
#474=CARTESIAN_POINT('',(190.,-74.833147735479,4.));
#475=CARTESIAN_POINT('',(190.,-74.833147735479,4.));
#476=CARTESIAN_POINT('',(190.,-90.,4.));
#477=CARTESIAN_POINT('',(320.,-6.9327204094029E-14,4.));
#478=CARTESIAN_POINT('',(320.,-6.9327204094029E-14,0.));
#479=CARTESIAN_POINT('',(190.,74.8331477354788,0.));
#480=CARTESIAN_POINT('',(190.,74.8331477354788,4.));
#481=CARTESIAN_POINT('',(190.,74.8331477354788,4.));
#482=CARTESIAN_POINT('',(320.,-6.9327204094029E-14,4.));
#483=CARTESIAN_POINT('',(190.,74.8331477354788,4.));
#484=CARTESIAN_POINT('',(190.,74.8331477354788,0.));
#485=CARTESIAN_POINT('',(190.,95.,0.));
#486=CARTESIAN_POINT('',(190.,95.,4.));
#487=CARTESIAN_POINT('',(190.,95.,4.));
#488=CARTESIAN_POINT('',(190.,74.8331477354788,4.));
#489=CARTESIAN_POINT('',(5.,-86.,4.));
#490=CARTESIAN_POINT('',(5.,-86.,4.));
#491=CARTESIAN_POINT('',(6.75,-86.,4.));
#492=CARTESIAN_POINT('',(5.,-86.,0.));
#493=CARTESIAN_POINT('',(6.75,-86.,0.));
#494=CARTESIAN_POINT('',(-174.753455918245,-86.,4.));
#495=CARTESIAN_POINT('',(-174.753455918245,-86.,4.));
#496=CARTESIAN_POINT('',(-173.003455918245,-86.,4.));
#497=CARTESIAN_POINT('',(-174.753455918245,-86.,0.));
#498=CARTESIAN_POINT('',(-173.003455918245,-86.,0.));
#499=CARTESIAN_POINT('',(5.,86.,4.));
#500=CARTESIAN_POINT('',(5.,86.,4.));
#501=CARTESIAN_POINT('',(6.75,86.,4.));
#502=CARTESIAN_POINT('',(5.,86.,0.));
#503=CARTESIAN_POINT('',(6.75,86.,0.));
#504=CARTESIAN_POINT('',(181.707997501566,-86.,4.));
#505=CARTESIAN_POINT('',(181.707997501566,-86.,4.));
#506=CARTESIAN_POINT('',(183.457997501566,-86.,4.));
#507=CARTESIAN_POINT('',(181.707997501566,-86.,0.));
#508=CARTESIAN_POINT('',(183.457997501566,-86.,0.));
#509=CARTESIAN_POINT('',(-174.753455918245,86.,4.));
#510=CARTESIAN_POINT('',(-174.753455918245,86.,4.));
#511=CARTESIAN_POINT('',(-173.003455918245,86.,4.));
#512=CARTESIAN_POINT('',(-174.753455918245,86.,0.));
#513=CARTESIAN_POINT('',(-173.003455918245,86.,0.));
#514=CARTESIAN_POINT('',(181.707997501566,86.,4.));
#515=CARTESIAN_POINT('',(181.707997501566,86.,4.));
#516=CARTESIAN_POINT('',(183.457997501566,86.,4.));
#517=CARTESIAN_POINT('',(181.707997501566,86.,0.));
#518=CARTESIAN_POINT('',(183.457997501566,86.,0.));
#519=CARTESIAN_POINT('',(190.,95.,4.));
#520=CARTESIAN_POINT('',(190.,95.,0.));
#521=CARTESIAN_POINT('',(190.,95.,4.));
#522=CARTESIAN_POINT('',(320.,-6.9327204094029E-14,4.));
#523=CARTESIAN_POINT('',(320.,-6.9327204094029E-14,0.));
#524=MECHANICAL_DESIGN_GEOMETRIC_PRESENTATION_REPRESENTATION('',(#315),
#525);
#525=(
GEOMETRIC_REPRESENTATION_CONTEXT(3)
GLOBAL_UNCERTAINTY_ASSIGNED_CONTEXT((#526))
GLOBAL_UNIT_ASSIGNED_CONTEXT((#529,#528,#527))
REPRESENTATION_CONTEXT('Bottom_Cover','TOP_LEVEL_ASSEMBLY_PART')
);
#526=UNCERTAINTY_MEASURE_WITH_UNIT(LENGTH_MEASURE(0.005),#529,
'DISTANCE_ACCURACY_VALUE','Maximum Tolerance applied to model');
#527=(
NAMED_UNIT(*)
SI_UNIT($,.STERADIAN.)
SOLID_ANGLE_UNIT()
);
#528=(
NAMED_UNIT(*)
PLANE_ANGLE_UNIT()
SI_UNIT($,.RADIAN.)
);
#529=(
LENGTH_UNIT()
NAMED_UNIT(*)
SI_UNIT(.MILLI.,.METRE.)
);
#530=PRODUCT_DEFINITION_SHAPE('','',#531);
#531=PRODUCT_DEFINITION('','',#533,#532);
#532=PRODUCT_DEFINITION_CONTEXT('',#539,'design');
#533=PRODUCT_DEFINITION_FORMATION_WITH_SPECIFIED_SOURCE('','',#535,
 .NOT_KNOWN.);
#534=PRODUCT_RELATED_PRODUCT_CATEGORY('','',(#535));
#535=PRODUCT('Bottom_Cover','Bottom_Cover','Bottom_Cover',(#537));
#536=PRODUCT_CATEGORY('','');
#537=PRODUCT_CONTEXT('',#539,'mechanical');
#538=APPLICATION_PROTOCOL_DEFINITION('international standard',
'automotive_design',2010,#539);
#539=APPLICATION_CONTEXT(
'core data for automotive mechanical design processes');
ENDSEC;
END-ISO-10303-21;
